Glass Jaw - Everything You Ever Wanted To Know About Silence Chords & Tabs

 

Everything You Ever Wanted To Know About Silence Chords & Tabs

Glass Jaw Chords & Tabs

Version: 2 Type: Tab 0 ratings
1 star 2 stars 3 stars 4 stars 5 stars
comments

Everything You Ever Wanted To Know About Silence Tab

   
From: "Mike Mireles" 
Date: Tue, 25 Dec 2001 13:20:06 -0600

Band: GlassJAw
Album: Everything You Ever Wanted To Know About Silence
Song: "Everything You Ever Wanted To Know About Silence"
Tab Author: Michael Mireles

This is all my own work and interpretation of the song but I can ensure
you that it's pretty accurate.

D-tuning

n0=picking is to be done at the head of the guitar (off the=20
fret board between the first fret and the string winders)


n0-------------|
--n0-----------|
----n0---------| 3x
------n0-------|
--------n0-----|
----------n0---|

_______________________________________________________________________


gtr.1
pm___________                         pm____________
---------------------------------------------------------|
---------------------------------------------------------|
---------------------------------------------------------| 4x
0-------------------------------------4------------------|
0-------------------------------------4------------------|
0-------------------------------------4------------------|

gtr.2
----------------------------------------------------------|
-----------------------------------------------9----------|
----------------------------------------8-6------8-6-8-6--| 2x
----------------------------------------------------------|
----------------------------------------------------------|
----------------------------------------------------------|

gtr.2
---16-------16-------16-------19-------19-------19-------19------
------16-14----16-14----16-14----16-14----16-14----16-14----16-14
-----------------------------------------------------------------
-----------------------------------------------------------------
-----------------------------------------------------------------
-----------------------------------------------------------------
con't
16-------16-------16-------16-------21-------21-------21-------21-------|=
---16-14----16-14----16-14----16-14-------------------------------------|=
---------------------------------------20-18----20-18----20-18----20-18-|=
------------------------------------------------------------------------|=
------------------------------------------------------------------------|=
------------------------------------------------------------------------|=


_______________________________________________________________________


gtr.1
---------------------------------------------------------|
---------------------------------------------------------|
---------------------------------------------------------| 2x
-2-2-2--2-2-2--2-2-2--2-2-2--6-6-6--6-6-6--6-6-6--6-6-6--|
-0-0-0--0-0-0--0-0-0--0-0-0--4-4-4--4-4-4--4-4-4--4-4-4--|
-0-0-0--0-0-0--0-0-0--0-0-0--4-4-4--4-4-4--4-4-4--4-4-4--|

gtr.2
---------------------------------------------------------|
---------------------------------------------------------|
-141414141414--9-9-9-9-9-9-9-141414141414--9-9-9-9-9-9-9-| 2x
---------------------------------------------------------|
-121212121212--7-7-7-7-7-7-7-121212121212--7-7-7-7-7-7-7-|
---------------------------------------------------------|

_______________________________________________________________________


gtr.1
pm___________                         pm____________
---------------------------------------------------------|
---------------------------------------------------------|
---------------------------------------------------------| 4x
0-------------------------------------4------------------|
0-------------------------------------4------------------|
0-------------------------------------4------------------|

gtr.2
----------------------------------------------------------|
-----------------------------------------------9----------|
----------------------------------------8-6------8-6-8-6--| 2x
----------------------------------------------------------|
----------------------------------------------------------|
----------------------------------------------------------|

gtr.2
---16-------16-------16-------19-------19-------19-------19------
------16-14----16-14----16-14----16-14----16-14----16-14----16-14
-----------------------------------------------------------------
-----------------------------------------------------------------
-----------------------------------------------------------------
-----------------------------------------------------------------
con't
16-------16-------16-------16-------21-------21-------21-------21-------|=
---16-14----16-14----16-14----16-14-------------------------------------|=
---------------------------------------20-18----20-18----20-18----20-18-|=
------------------------------------------------------------------------|=
------------------------------------------------------------------------|=
------------------------------------------------------------------------|=


_______________________________________________________________________


gtr.1
---------------------------------------------------------|
---------------------------------------------------------|
---------------------------------------------------------| 2x
-2-2-2--2-2-2--2-2-2--2-2-2--6-6-6--6-6-6--6-6-6--6-6-6--|
-0-0-0--0-0-0--0-0-0--0-0-0--4-4-4--4-4-4--4-4-4--4-4-4--|
-0-0-0--0-0-0--0-0-0--0-0-0--4-4-4--4-4-4--4-4-4--4-4-4--|

gtr.2
---------------------------------------------------------|
---------------------------------------------------------|
-141414141414--9-9-9-9-9-9-9-141414141414--9-9-9-9-9-9-9-| 2x
---------------------------------------------------------|
-121212121212--7-7-7-7-7-7-7-121212121212--7-7-7-7-7-7-7-|
---------------------------------------------------------|

_______________________________________________________________________

[ Tab from: http://www.guitartabs.cc/tabs/g/glass_jaw/everything_you_ever_wanted_to_know_about_silence_tab_ver_2.html ]
gtr.1
---------------------------------------------------------
---------------------------------------------------------
---------------------------------------------------------
-0-0-0--0-0-0--0-0-0--0-0-0--7-7-7--7-7-7--7-7-7--7-7-7--
-0-0-0--0-0-0--0-0-0--0-0-0--7-7-7--7-7-7--7-7-7--7-7-7--
-0-0-0--0-0-0--0-0-0--0-0-0--7-7-7--7-7-7--7-7-7--7-7-7--
con't
---------------------------------------------------------|
---------------------------------------------------------|
---------------------------------------------------------| 4x
-0-0-0--0-0-0--0-0-0--0-0-0--5-5-5--5-5-5--5-5-5--5-5-5--|
-0-0-0--0-0-0--0-0-0--0-0-0--5-5-5--5-5-5--5-5-5--5-5-5--|
-0-0-0--0-0-0--0-0-0--0-0-0--5-5-5--5-5-5--5-5-5--5-5-5--|

gtr.2
-----------------------------------------------------------------
141414-141414-141414-141414-141414-141414-14---------------------
----------------------------------------------------11/141414----
111111-111111-111111-111111-111111-111111-11---------------------
--------------------------------------------9101112-9-/121212----
-----------------------------------------------------------------
con't
-----------------------------------------------------------------
141414-141414-141414-141414----------14--------------------------
----------------------------------14----------14-------14--------
111111-111111-111111-111111----14-------14-------14-------14-----
----------------------------12-------------12-------12-------12--
-----------------------------------------------------------------
con't
-----------------------------------------------------------------
141414-141414-141414-141414-141414-141414-14---------------------
----------------------------------------------------11/14-14-----
111111-111111-111111-111111-111111-111111-11---------------------
----------------------------------------------------9-/12-12-----
-----------------------------------------------------------------
con't
-----------------------------------------------------------------|
141414-141414-141414-141414----------14--------------------------|
----------------------------------14----------14-------14--------|
111111-111111-111111-111111----14-------14-------14-------14-----|
----------------------------12-------------12-------12-------12--|
-----------------------------------------------------------------|

_______________________________________________________________________

gtr.1
--------------------------------------------------
--------------------------------------------------
--------------------------------------------------
--2-2-2-2-xx--2-2-2-2-xx--0-0-0-0-xx--0-0-0-0-xx--
--2-2-2-2-xx--2-2-2-2-xx--0-0-0-0-xx--0-0-0-0-xx--
--2-2-2-2-xx--2-2-2-2-xx--0-0-0-0-xx--0-0-0-0-xx--
con't
--------------------------------------------------|
--------------------------------------------------|
--------------------------------------------------| 2x
--6-6-6-6-xx--6-6-6-6-xx--0-0-0-0-xx--0-0-0-0-xx--|
--6-6-6-6-xx--6-6-6-6-xx--0-0-0-0-xx--0-0-0-0-xx--|
--6-6-6-6-xx--6-6-6-6-xx--0-0-0-0-xx--0-0-0-0-xx--|

gtr.2                                              ///
---------------------------------------------------0--
--------12----12----------12----12----------12-----0--
--13-14----13----13-13-14----13----13-13-14----9---0--
---------------------------------------------------0--
------------------------------------------------------
------------------------------------------------------
con't
--------------------------------------17^-------------|
-----12-------12-------12-------12--------------------|
--14----14-13----13-14----14-13----13-14^-------------|
------------------------------------------------------|
------------------------------------------------------|
------------------------------------------------------|

_______________________________________________________________________


gtr.1
---------------------------------------------------------
---------------------------------------------------------
---------------------------------------------------------
-0-0-0--0-0-0--0-0-0--0-0-0--7-7-7--7-7-7--7-7-7--7-7-7--
-0-0-0--0-0-0--0-0-0--0-0-0--7-7-7--7-7-7--7-7-7--7-7-7--
-0-0-0--0-0-0--0-0-0--0-0-0--7-7-7--7-7-7--7-7-7--7-7-7--
con't
---------------------------------------------------------|
---------------------------------------------------------|
---------------------------------------------------------| 4x
-0-0-0--0-0-0--0-0-0--0-0-0--5-5-5--5-5-5--5-5-5--5-5-5--|
-0-0-0--0-0-0--0-0-0--0-0-0--5-5-5--5-5-5--5-5-5--5-5-5--|
-0-0-0--0-0-0--0-0-0--0-0-0--5-5-5--5-5-5--5-5-5--5-5-5--|

gtr.2
-------------------------------------------------------------------
141414-141414-141414-141414-141414-141414-141414-------------------
-------------------------------------------------11/141414-141414--
111111-111111-111111-111111-111111-111111-111111-------------------
-------------------------------------------------9-/121212-121212--
-------------------------------------------------------------------
con't
-------------------------------------------------------------------
-------------------------------------14----------------------------
141414-141414-14/1515/16-16-------14----------14-------14----------
-------------------------------14-------14-------14-------14-------
121212-121212-12/1313/14-14-12-------------12-------12-------12----
-------------------------------------------------------------------
con't
------------------------------------------------------------
141414-141414-141414-141414-141414-141414-141414------------
-------------------------------------------------11/141414--
111111-111111-111111-111111-111111-111111-111111------------
-------------------------------------------------9-/121212--
------------------------------------------------------------
con't
------------------------------------------------------------|
------------------------------------------------------------|
141414-141414-141414-14/16--191919-191919-212121-212121-----|
------------------------------------------------------------|
121212-121212-121212-12/14--171717-171717-191919-191919-----|
------------------------------------------------------------|

_______________________________________________________________________


gtr.1
---------------------------------------------------------
---------------------------------------------------------
---------------------------------------------------------
-0-0-0--0-0-0--0-0-0--0-0-0--7-7-7--7-7-7--7-7-7--7-7-7--
-0-0-0--0-0-0--0-0-0--0-0-0--7-7-7--7-7-7--7-7-7--7-7-7--
-0-0-0--0-0-0--0-0-0--0-0-0--7-7-7--7-7-7--7-7-7--7-7-7--
con't
---------------------------------------------------------|
---------------------------------------------------------|
---------------------------------------------------------|=20
-0-0-0--0-0-0--0-0-0--0-0-0--5-5-5--5-5-5--5-5-5--5-5-5--|
-0-0-0--0-0-0--0-0-0--0-0-0--5-5-5--5-5-5--5-5-5--5-5-5--|
-0-0-0--0-0-0--0-0-0--0-0-0--5-5-5--5-5-5--5-5-5--5-5-5--|
Comments