Glass Jaw - Cosmopolitan Blood Loss Chords & Tabs

 

Cosmopolitan Blood Loss Chords & Tabs

Glass Jaw Chords & Tabs

Version: 2 Type: Tab 0 ratings
1 star 2 stars 3 stars 4 stars 5 stars
comments

Cosmopolitan Blood Loss Tab

   
Cosmopolitan Blood Loss
Tabbed By: WorshipTribute13@aol.com

=harmonic
__=palm mute
h=hammer-on


verse-guitar1
-----|-----
-----|-----
-9-9-|-----
-8-8-|--
-7-7-|-----
-7-7-|-----
       19x

verse-guitar2
-12-12-0--15-15-0-------17-17-------22-
------------------13-13-------15-15----
---------------------------------------
---------------------------------------
---------------------------------------
---------------------------------------

____________________________________________________________

verse-guitar1
-------|-----
-------|-----
-9-9-9-|-----
-8-8-8-|--
-7-7-7-|-----
-7-7-7-|-----
         9x 

verse-guitar2
-------------------------------
-15-15-15-15-15-15-15-15-15-15-
-------------------------------
-------------------------------
-------------------------------
-------------------------------

____________________________________________________________

fill in-guitar1 and guitar2
---------------------------------
---------------------------------
---------------------------------
-2-2-2-4-4-4-0-0-0-2-2-2-2-2-3-0-
-2-2-2-4-4-4-0-0-0-2-2-2-2-2-3-0-
-2-2-2-4-4-4-0-0-0-2-2-2-2-2-3-0-

____________________________________________________________

verse-guitar1
-----|-----
-----|-----
-9-9-|-----
-8-8-|--
-7-7-|-----
-7-7-|-----
       19x

verse-guitar2
-12-12-0--15-15-0-------17-17-------22-
------------------13-13-------15-15----
---------------------------------------
---------------------------------------
---------------------------------------
---------------------------------------

____________________________________________________________

verse-guitar1
-------|-----
-------|-----
-9-9-9-|-----
-8-8-8-|--
-7-7-7-|-----
-7-7-7-|-----
         9x 

verse-guitar2
-------------------------------
-15-15-15-15-15-15-15-15-15-15-
-------------------------------
-------------------------------
-------------------------------
-------------------------------

____________________________________________________________

fill in-guitar1 and guitar2
---------------------------------
---------------------------------
---------------------------------
-1-1-1-4-4-4-0-0-0-2-2-2-2-2-3-0-
-1-1-1-4-4-4-0-0-0-2-2-2-2-2-3-0-
-1-1-1-4-4-4-0-0-0-2-2-2-2-2-3-0-

____________________________________________________________

chorus-guitar1
-----------------------------|-----------------------------|---------------------------
-----------------------------|-----------------------------|---------------------------
-6-6-6-6-6-6-6-6-6-6-6-6-6-6-|-4-4-4-4-4-4-4-4-4-4-4-4-4-4-|---------------------------
-6-6-6-6-6-6-6-6-6-6-6-6-6-6-|-4-4-4-4-4-4-4-4-4-4-4-4-4-4-|-2-2-2-2-2h4-4-4-4-4-0-0-0-
-4-4-4-4-4-4-4-4-4-4-4-4-4-4-|-2-2-2-2-2-2-2-2-2-2-2-2-2-2-|-2-2-2-2-2h4-4-4-4-4-0-0-0-
-----------------------------|-----------------------------|-2-2-2-2-2h4-4-4-4-4-0-0-0-
                                                                                 ___   

chorus-guitar2
-----------------------------|-----------------------------|-------------------------------|-----------------
-----------------------------|-----------------------------|-5-5-5-5-5slide7-7-7-7-7-------|-----------------
-6-6-6-6-6-6-6-6-6-6-6-6-6-6-|-4-4-4-4-4-4-4-4-4-4-4-4-4-4-|-x-x-x-x-x-x-x-x-x-x-x-x-------|-----------------
-x-x-x-x-x-x-x-x-x-x-x-x-x-x-|-x-x-x-x-x-x-x-x-x-x-x-x-x-x-|-2-2-2-2-2slide4-4-4-4-4-0-0-0-|-2h4-2-0---------
-4-4-4-4-4-4-4-4-4-4-4-4-4-4-|-2-2-2-2-2-2-2-2-2-2-2-2-2-2-|-------------------------0-0-0-|---------2h4-2-0-
-----------------------------|-----------------------------|-------------------------0-0-0-|-----------------
                                                                                     ___

____________________________________________________________

chorus-guitar1
-----------------------------|-----------------------------|---------------------------
-----------------------------|-----------------------------|---------------------------
-6-6-6-6-6-6-6-6-6-6-6-6-6-6-|-4-4-4-4-4-4-4-4-4-4-4-4-4-4-|---------------------------
-6-6-6-6-6-6-6-6-6-6-6-6-6-6-|-4-4-4-4-4-4-4-4-4-4-4-4-4-4-|-2-2-2-2-2h4-4-4-4-4-0-0-0-
-4-4-4-4-4-4-4-4-4-4-4-4-4-4-|-2-2-2-2-2-2-2-2-2-2-2-2-2-2-|-2-2-2-2-2h4-4-4-4-4-0-0-0-
-----------------------------|-----------------------------|-2-2-2-2-2h4-4-4-4-4-0-0-0-
                                                                                 ___  

chorus-guitar2
-----------------------------|-----------------------------|-------------------------------|-----------------
-----------------------------|-----------------------------|-5-5-5-5-5slide7-7-7-7-7-------|-----------------
-6-6-6-6-6-6-6-6-6-6-6-6-6-6-|-4-4-4-4-4-4-4-4-4-4-4-4-4-4-|-x-x-x-x-x-x-x-x-x-x-x-x-------|-----------------
-x-x-x-x-x-x-x-x-x-x-x-x-x-x-|-x-x-x-x-x-x-x-x-x-x-x-x-x-x-|-2-2-2-2-2slide4-4-4-4-4-0-0-0-|-2h4-2-0---------
-4-4-4-4-4-4-4-4-4-4-4-4-4-4-|-2-2-2-2-2-2-2-2-2-2-2-2-2-2-|-------------------------0-0-0-|---------2h4-2-0-
-----------------------------|-----------------------------|-------------------------0-0-0-|-----------------
                                                                                     ___

____________________________________________________________

2nd fill in-guitar1
---------------
---------------
-9-9--9-9--9-9-
-8-8--8-8--8-8-
-7-7--7-7--7-7-
-7-7--7-7--7-7-

2nd fill in-guitar2
------------------------------
------------------------------
------------------------------
------------------------------
------------------------------
-(wierd scratchy pick scrape)-

____________________________________________________________

verse-guitar1
-----|-----
-----|-----
-9-9-|-----
-8-8-|--
-7-7-|-----
-7-7-|-----
       19x

verse-guitar2
-12-12-0--15-15-0-------17-17-------22-
------------------13-13-------15-15----
---------------------------------------
---------------------------------------
---------------------------------------
---------------------------------------

____________________________________________________________

verse-guitar1
-------|-----
-------|-----
-9-9-9-|-----
-8-8-8-|--
-7-7-7-|-----
-7-7-7-|-----
         9x 

verse-guitar2
-------------------------------
-15-15-15-15-15-15-15-15-15-15-
-------------------------------
-------------------------------
-------------------------------
-------------------------------

____________________________________________________________

fill in-guitar1 and guitar2
---------------------------------
---------------------------------
---------------------------------
-2-2-2-4-4-4-0-0-0-2-2-2-2-2-3-0-
-2-2-2-4-4-4-0-0-0-2-2-2-2-2-3-0-
-2-2-2-4-4-4-0-0-0-2-2-2-2-2-3-0-

____________________________________________________________

verse-guitar1
-----|-----
-----|-----
-9-9-|-----
-8-8-|--
-7-7-|-----
-7-7-|-----
       19x

verse-guitar2
-12-12-0--15-15-0-------17-17-------22-
------------------13-13-------15-15----
---------------------------------------
---------------------------------------
---------------------------------------
---------------------------------------

____________________________________________________________

verse-guitar1
-------|-----
-------|-----
-9-9-9-|-----
-8-8-8-|--
-7-7-7-|-----
-7-7-7-|-----
         9x 

verse-guitar2
-------------------------------
-15-15-15-15-15-15-15-15-15-15-
-------------------------------
-------------------------------
-------------------------------
-------------------------------

____________________________________________________________

fill in-guitar1 and guitar2
---------------------------------
---------------------------------
---------------------------------
-1-1-1-4-4-4-0-0-0-2-2-2-2-2-3-0-
-1-1-1-4-4-4-0-0-0-2-2-2-2-2-3-0-
-1-1-1-4-4-4-0-0-0-2-2-2-2-2-3-0-

____________________________________________________________

chorus-guitar1
-----------------------------|-----------------------------|---------------------------
-----------------------------|-----------------------------|---------------------------
-6-6-6-6-6-6-6-6-6-6-6-6-6-6-|-4-4-4-4-4-4-4-4-4-4-4-4-4-4-|---------------------------
-6-6-6-6-6-6-6-6-6-6-6-6-6-6-|-4-4-4-4-4-4-4-4-4-4-4-4-4-4-|-2-2-2-2-2h4-4-4-4-4-0-0-0-
-4-4-4-4-4-4-4-4-4-4-4-4-4-4-|-2-2-2-2-2-2-2-2-2-2-2-2-2-2-|-2-2-2-2-2h4-4-4-4-4-0-0-0-
-----------------------------|-----------------------------|-2-2-2-2-2h4-4-4-4-4-0-0-0-
                                                                                 ___  

chorus-guitar2
-----------------------------|-----------------------------|-------------------------------|-----------------
-----------------------------|-----------------------------|-5-5-5-5-5slide7-7-7-7-7-------|-----------------
-6-6-6-6-6-6-6-6-6-6-6-6-6-6-|-4-4-4-4-4-4-4-4-4-4-4-4-4-4-|-x-x-x-x-x-x-x-x-x-x-x-x-------|-----------------
-x-x-x-x-x-x-x-x-x-x-x-x-x-x-|-x-x-x-x-x-x-x-x-x-x-x-x-x-x-|-2-2-2-2-2slide4-4-4-4-4-0-0-0-|-2h4-2-0---------
-4-4-4-4-4-4-4-4-4-4-4-4-4-4-|-2-2-2-2-2-2-2-2-2-2-2-2-2-2-|-------------------------0-0-0-|---------2h4-2-0-
-----------------------------|-----------------------------|-------------------------0-0-0-|-----------------
                                                                                     ___

____________________________________________________________
[ Tab from: http://www.guitartabs.cc/tabs/g/glass_jaw/cosmopolitan_blood_loss_tab_ver_2.html ]
chorus-guitar1
-----------------------------|-----------------------------|---------------------------
-----------------------------|-----------------------------|---------------------------
-6-6-6-6-6-6-6-6-6-6-6-6-6-6-|-4-4-4-4-4-4-4-4-4-4-4-4-4-4-|---------------------------
-6-6-6-6-6-6-6-6-6-6-6-6-6-6-|-4-4-4-4-4-4-4-4-4-4-4-4-4-4-|-2-2-2-2-2h4-4-4-4-4-0-0-0-
-4-4-4-4-4-4-4-4-4-4-4-4-4-4-|-2-2-2-2-2-2-2-2-2-2-2-2-2-2-|-2-2-2-2-2h4-4-4-4-4-0-0-0-
-----------------------------|-----------------------------|-2-2-2-2-2h4-4-4-4-4-0-0-0-
                                                                                 ___   

chorus-guitar2
-----------------------------|-----------------------------|-------------------------------|-----------------
-----------------------------|-----------------------------|-5-5-5-5-5slide7-7-7-7-7-------|-----------------
-6-6-6-6-6-6-6-6-6-6-6-6-6-6-|-4-4-4-4-4-4-4-4-4-4-4-4-4-4-|-x-x-x-x-x-x-x-x-x-x-x-x-------|-----------------
-x-x-x-x-x-x-x-x-x-x-x-x-x-x-|-x-x-x-x-x-x-x-x-x-x-x-x-x-x-|-2-2-2-2-2slide4-4-4-4-4-0-0-0-|-2h4-2-0---------
-4-4-4-4-4-4-4-4-4-4-4-4-4-4-|-2-2-2-2-2-2-2-2-2-2-2-2-2-2-|-------------------------0-0-0-|---------2h4-2-0-
-----------------------------|-----------------------------|-------------------------0-0-0-|-----------------
                                                                                     ___

____________________________________________________________

solo-guitar1
---------------------------------------------------
-10-----------------------------------10-13-13bend-
----9h10-9-10-9-7-5-7h9-7slide5-7h9-7--------------
---------------------------------------------------
---------------------------------------------------
---------------------------------------------------

----------------------------------------------------------------------
-8h10-13-10-8h10-13-10--------------------------------10-13-13-13bend-
-----------------------7h9-10-9-7-5-7h9-7slide5-7h9-7-----------------
----------------------------------------------------------------------
----------------------------------------------------------------------
----------------------------------------------------------------------

solo-guitar2
-----------------
-----------------
-9-8-8h9-8-12----
--------------10-
-----------------
-----------------

____________________________________________________________

intro to interlude-guitar1
----------------------------------------------------------------------
----------------------------------------------------------------------
-9-9--9-9--9-9--9-9--9-9--9-9--9-9--9-9--9-9--9-9--9-9--9-9--9-9--9-9-
-8-8--8-8--8-8--8-8--8-8--8-8--8-8--8-8--8-8--8-8--8-8--8-8--8-8--8-8-
-7-7--7-7--7-7--7-7--7-7--7-7--7-7--7-7--7-7--7-7--7-7--7-7--7-7--7-7-
-7-7--7-7--7-7--7-7--7-7--7-7--7-7--7-7--7-7--7-7--7-7--7-7--7-7--7-7-

intro to interlude-guitar2
------------------------------
------------------------------
------------------------------
------------------------------
------------------------------
-(wierd scratchy pick scrape)-

____________________________________________________________

interlude-guitar1
-----
-----
-9-9-
-8-8-
-7-7-
-7-7-
47x

interlude-guitar2
-10-10-10-10-10-10-10-10-10-10-10-10-10-10-
-14-14-14-14-14-14-14-14-14-14-14-14-14-14-
-------------------------------------------
-------------------------------------------
-------------------------------------------
-------------------------------------------

-12-12-12-12-12-12-12-12-12-12-12-12-12-12-12-12-12-12-12-12-12-12-12-12-12-
-16-16-16-16-16-16-16-16-16-16-16-16-16-16-16-16-16-16-16-16-16-16-16-16-16-
----------------------------------------------------------------------------
----------------------------------------------------------------------------
----------------------------------------------------------------------------
----------------------------------------------------------------------------
(on the last "-12-" slide up the neck)
              -16-

____________________________________________________________

outro to interlude-guitar1 and guitar2
-----
-----
-----
-0-0-
-0-0-
-0-0-
_

____________________________________________________________

chorus-guitar1
-----------------------------|-----------------------------|---------------------------
-----------------------------|-----------------------------|---------------------------
-6-6-6-6-6-6-6-6-6-6-6-6-6-6-|-4-4-4-4-4-4-4-4-4-4-4-4-4-4-|---------------------------
-6-6-6-6-6-6-6-6-6-6-6-6-6-6-|-4-4-4-4-4-4-4-4-4-4-4-4-4-4-|-2-2-2-2-2h4-4-4-4-4-0-0-0-
-4-4-4-4-4-4-4-4-4-4-4-4-4-4-|-2-2-2-2-2-2-2-2-2-2-2-2-2-2-|-2-2-2-2-2h4-4-4-4-4-0-0-0-
-----------------------------|-----------------------------|-2-2-2-2-2h4-4-4-4-4-0-0-0-
                                                                                 ___   

chorus-guitar2
-----------------------------|-----------------------------|-------------------------------|-----------------
-----------------------------|-----------------------------|-5-5-5-5-5slide7-7-7-7-7-------|-----------------
-6-6-6-6-6-6-6-6-6-6-6-6-6-6-|-4-4-4-4-4-4-4-4-4-4-4-4-4-4-|-x-x-x-x-x-x-x-x-x-x-x-x-------|-----------------
-x-x-x-x-x-x-x-x-x-x-x-x-x-x-|-x-x-x-x-x-x-x-x-x-x-x-x-x-x-|-2-2-2-2-2slide4-4-4-4-4-0-0-0-|-2h4-2-0---------
-4-4-4-4-4-4-4-4-4-4-4-4-4-4-|-2-2-2-2-2-2-2-2-2-2-2-2-2-2-|-------------------------0-0-0-|---------2h4-2-0-
-----------------------------|-----------------------------|-------------------------0-0-0-|-----------------
                                                                                     ___

____________________________________________________________

chorus-guitar1
-----------------------------|-----------------------------|---------------------------
-----------------------------|-----------------------------|---------------------------
-6-6-6-6-6-6-6-6-6-6-6-6-6-6-|-4-4-4-4-4-4-4-4-4-4-4-4-4-4-|---------------------------
-6-6-6-6-6-6-6-6-6-6-6-6-6-6-|-4-4-4-4-4-4-4-4-4-4-4-4-4-4-|-2-2-2-2-2h4-4-4-4-4-0-0-0-
-4-4-4-4-4-4-4-4-4-4-4-4-4-4-|-2-2-2-2-2-2-2-2-2-2-2-2-2-2-|-2-2-2-2-2h4-4-4-4-4-0-0-0-
-----------------------------|-----------------------------|-2-2-2-2-2h4-4-4-4-4-0-0-0-
                                                                                 ___   

chorus-guitar2
-----------------------------|-----------------------------|-------------------------------|-----------------
-----------------------------|-----------------------------|-5-5-5-5-5slide7-7-7-7-7-------|-----------------
-6-6-6-6-6-6-6-6-6-6-6-6-6-6-|-4-4-4-4-4-4-4-4-4-4-4-4-4-4-|-x-x-x-x-x-x-x-x-x-x-x-x-------|-----------------
-x-x-x-x-x-x-x-x-x-x-x-x-x-x-|-x-x-x-x-x-x-x-x-x-x-x-x-x-x-|-2-2-2-2-2slide4-4-4-4-4-0-0-0-|-2h4-2-0---------
-4-4-4-4-4-4-4-4-4-4-4-4-4-4-|-2-2-2-2-2-2-2-2-2-2-2-2-2-2-|-------------------------0-0-0-|---------2h4-2-0-
-----------------------------|-----------------------------|-------------------------0-0-0-|-----------------
                                                                                     ___

____________________________________________________________

chorus-guitar1
-----------------------------|-----------------------------|---------------------------
-----------------------------|-----------------------------|---------------------------
-6-6-6-6-6-6-6-6-6-6-6-6-6-6-|-4-4-4-4-4-4-4-4-4-4-4-4-4-4-|---------------------------
-6-6-6-6-6-6-6-6-6-6-6-6-6-6-|-4-4-4-4-4-4-4-4-4-4-4-4-4-4-|-2-2-2-2-2h4-4-4-4-4-0-0-0-
-4-4-4-4-4-4-4-4-4-4-4-4-4-4-|-2-2-2-2-2-2-2-2-2-2-2-2-2-2-|-2-2-2-2-2h4-4-4-4-4-0-0-0-
-----------------------------|-----------------------------|-2-2-2-2-2h4-4-4-4-4-0-0-0-
                                                                                 ___ 

chorus-guitar2
-----------|-------------------------------|-----------------
-----------|-5-5-5-5-5slide7-7-7-7-7-------|-----------------
-----------|-x-x-x-x-x-x-x-x-x-x-x-x-------|-----------------
-4-2h4-2-0-|-2-2-2-2-2slide4-4-4-4-4-0-0-0-|-2h4-2-0---------
-----------|-------------------------0-0-0-|---------2h4-2-0-
-----------|-------------------------0-0-0-|-----------------
                                     ___

____________________________________________________________

chorus-guitar1
-----------------------------|-----------------------------|---------------------------
-----------------------------|-----------------------------|---------------------------
-6-6-6-6-6-6-6-6-6-6-6-6-6-6-|-4-4-4-4-4-4-4-4-4-4-4-4-4-4-|---------------------------
-6-6-6-6-6-6-6-6-6-6-6-6-6-6-|-4-4-4-4-4-4-4-4-4-4-4-4-4-4-|-2-2-2-2-2h4-4-4-4-4-0-0-0-
-4-4-4-4-4-4-4-4-4-4-4-4-4-4-|-2-2-2-2-2-2-2-2-2-2-2-2-2-2-|-2-2-2-2-2h4-4-4-4-4-0-0-0-
-----------------------------|-----------------------------|-2-2-2-2-2h4-4-4-4-4-0-0-0-
                                                                                 ___ 

chorus-guitar2
-----------|-------------------------------|-----------------
-----------|-5-5-5-5-5slide7-7-7-7-7-------|-----------------
-----------|-x-x-x-x-x-x-x-x-x-x-x-x-------|-----------------
-2h4-2---2-|-2-2-2-2-2slide4-4-4-4-4-0-0-0-|-2h4-2-0---------
-------4---|-------------------------0-0-0-|---------2h4-2-0-
-----------|-------------------------0-0-0-|-----------------
                                     ___

____________________________________________________________

fill in-guitar1
---------------
---------------
-9-9--9-9--9-9-
-8-8--8-8--8-8-
-7-7--7-7--7-7-
-7-7--7-7--7-7-

fill in-guitar2
---------------
---------------
---------------
---------------
-7-7--7-7--7-7-
-7-7--7-7--7-7-

____________________________________________________________

outro-guitar1
-----
-----
-----
-0-0-
-0-0-
-0-0-
_

outro-guitar2
-12-
-15-
----
----
----
----
Comments