Glass Jaw - Cavalcade Chords & Tabs

 

Cavalcade Chords & Tabs

Glass Jaw Chords & Tabs

Version: 2 Type: Tab 0 ratings
1 star 2 stars 3 stars 4 stars 5 stars
comments

Cavalcade Tab

Cavalcade
Tabbed By: WorshipTribute13@aol.com

intro-guitar1
--------------------------10-10-10-10-10-10-10-10-10-10-10-
------------------10-12------------------------------------
-12-11-7h9--11-12-------9----------------------------------
-----------------------------------------------------------
-----------------------------------------------------------
-----------------------------------------------------------

_______________________________________________________________________

1st verse-guitar1                             1st chorus-guitar1
-----------------------------------------|------------------------|-12-
---8---8---8---8---8---8---8---8---8---8-|---------------12h13-12-|-12-
-9---9---9---9---9---9---9---9---9---9---|--------7---7--12----12-|-12-
-----------------------------------------|-7---7--7h9-7-----------|-14-
-----------------------------------------|-7h9-7------------------|----
-----------------------------------------|------------------------|----                                      
                                                     5x
1st verse-guitar2
----12----------12-------|-12-
-13----13-13-13----13-13-|-13-
-------------------------|-12-
-------------------------|----
-------------------------|----
-------------------------|----
          4x               3x

_______________________________________________________________________

2nd chorus-guitar1
---|---
---|---
-4-|---
-4-|-5-
-2-|-5-
---|-5-
30x 30x

2nd chorus-guitar2
-5-|-15-15-15-14-14-14-|---------
-x-|-x--x--x--x--x--x--|---------
-2-|-12-12-12-11-11-11-|-9slide4-
---|-------------------|-x-----x-
---|-------------------|-7slide2-
---|-------------------|---------
24x                        2x

_______________________________________________________________________

2nd chorus-guitar1
---|---
---|---
-4-|---
-4-|-5-
-2-|-5-
---|-5-
30x 30x

2nd chorus-guitar2
-5-|-15-15-15-9-9-9-|---------
-x-|-x--x--x--x-x-x-|---------
-2-|-12-12-12-7-7-7-|-9slide4-
---|----------------|-x-----x-
---|----------------|-7slide2-
---|----------------|---------
24x                     2x

_______________________________________________________________________

fill in-guitar1
---------------------------10-10-10-10-10-10-10-10-10-10-10-
----------------------12------------------------------------
-12-11-7h9----9-11-12----9----------------------------------
------------------------------------------------------------
------------------------------------------------------------
------------------------------------------------------------

_______________________________________________________________________

1st verse-guitar1                             1st chorus-guitar1
-----------------------------------------|------------------------|-12-
---8---8---8---8---8---8---8---8---8---8-|---------------12h13-12-|-12-
-9---9---9---9---9---9---9---9---9---9---|--------7---7--12----12-|-12-
-----------------------------------------|-7---7--7h9-7-----------|-14-
-----------------------------------------|-7h9-7------------------|----
-----------------------------------------|------------------------|----                                      
                                                     5x
1st verse-guitar2
----12----------12-------|-12-
-13----13-13-13----13-13-|-13-
-------------------------|-12-
-------------------------|----
-------------------------|----
-------------------------|----
          4x               3x

_______________________________________________________________________

2nd chorus-guitar1
---|---
---|---
-4-|---
-4-|-5-
-2-|-5-
---|-5-
30x 30x

2nd chorus-guitar2
-5-|-15-15-15-14-14-14-|---------
-x-|-x--x--x--x--x--x--|---------
-2-|-12-12-12-11-11-11-|-9slide4-
---|-------------------|-x-----x-
---|-------------------|-7slide2-
---|-------------------|---------
24x                        2x

_______________________________________________________________________

2nd chorus-guitar1
---|---
---|---
-4-|---
-4-|-5-
-2-|-5-
---|-5-
30x 30x

2nd chorus-guitar2
-7-|-15-15-15-9-9-9-|---------
-x-|-x--x--x--x-x-x-|---------
-4-|-12-12-12-7-7-7-|-9slide4-
---|----------------|-x-----x-
---|----------------|-7slide2-
---|----------------|---------
24x                     2x

_______________________________________________________________________

2nd chorus-guitar1
---|---
---|---
-4-|---
-4-|-5-
-2-|-5-
---|-5-
30x 30x

2nd chorus-guitar2
-11-|-15-15-15-14-14-14-|-------------
-x--|-x--x--x--x--x--x--|-------------
-7--|-12-12-12-11-11-11-|-------------
----|-------------------|-------------
----|-------------------|-5h7-5-4-2-0-
----|-------------------|-------------
24x                           5x

_______________________________________________________________________

2nd chorus-guitar1
---|---
---|---
-4-|---
-4-|-5-
-2-|-5-
---|-5-
30x 30x
[ Tab from: http://www.guitartabs.cc/tabs/g/glass_jaw/cavalcade_tab_ver_2.html ]
2nd chorus-guitar2
-11-|-15-15-15-14-14-14-9-9-15-15-15-14-14-9-9-|-------------
-x--|-x--x--x--x--x--x--x-x-x--x--x--x--x--x-x-|-------------
-7--|-12-12-12-11-11-11-7-7-12-12-12-11-11-7-7-|-------------
----|------------------------------------------|-------------
----|------------------------------------------|-5h7-5-4-2-0-
----|------------------------------------------|-------------
16x                                                  5x 

_______________________________________________________________________

fill in-guitar1
--------------------------------------10-10-10-10-10-
-----------------------------------------------------
-12-11-7h9-9-9-9-9-9--12-11-7h9--9-11----------------
-----------------------------------------------------
-----------------------------------------------------
-----------------------------------------------------

_______________________________________________________________________

2nd verse-guitar1
------------------------------------------------------------------|-----------|---------------
------------------------------------------------------------------|-----------|---------------
------------------------------------------------------------5h7p5-|-----------|---------------
-7-7-5h7-7--5h7-7-7-5h7-7--5h7-7-7-5h7-7--0h5h7-------0h5h7-------|-7-7-5h7-7-|-5h7-7-7-5h7-7-
------------------------------------------------0h5h7-------------|-----------|---------------
------------------------------------------------------------------|-----------|---------------
                             6x                                                      6x

2nd verse-guitar2
-----10---12-10---
------------------
-7h9----9------12-
------------------
------------------
------------------
       3x

_______________________________________________________________________

intro to 2nd chorus-guitar1
-5-5-5-5-5-5-5-5-----------------5-5-5-5-5-5-5-5-----------------
-x-x-x-x-x-x-x-x-----------------x-x-x-x-x-x-x-x-----------------
-2-2-2-2-2-2-2-2-2-2-2-2-2-2-2-2-2-2-2-2-2-2-2-2-2-2-2-2-2-2-2-2-
-----------------x-x-x-x-x-x-x-x-----------------x-x-x-x-x-x-x-x-
-----------------5-5-5-5-5-5-5-5-----------------5-5-5-5-5-5-5-5-
-----------------------------------------------------------------
                              2x

intro to 2nd chorus-guitar2
---
---
-9-
-7-
---
---
64x

_______________________________________________________________________
                                 
2nd chorus-guitar1
---|---
---|---
-4-|---
-4-|-5-
-2-|-5-
---|-5-
30x 30x

2nd chorus-guitar2
-11-|-15-15-15-14-14-14-|-------------
-x--|-x--x--x--x--x--x--|-------------
-7--|-12-12-12-11-11-11-|-------------
----|-------------------|-------------
----|-------------------|-5h7-5-4-2-0-
----|-------------------|-------------
24x                           4x

_______________________________________________________________________

2nd chorus-guitar1
---|---
---|---
-4-|---
-4-|-5-
-2-|-5-
---|-5-
30x 30x

2nd chorus-guitar2
-11-|-15-15-15-14-14-14-|-------------
-x--|-x--x--x--x--x--x--|-------------
-7--|-12-12-12-11-11-11-|-------------
----|-------------------|-------------
----|-------------------|-5h7-5-4-2-0-
----|-------------------|-------------
24x                           4x

_______________________________________________________________________

2nd chorus-guitar1
---|---
---|---
-4-|---
-4-|-5-
-2-|-5-
---|-5-
30x 30x

2nd chorus-guitar2
-11-|-15-15-15-14-14-14-9-9-15-15-15-14-14-9-9-|-15-15-14-14-9-9-9-9-|-15-15-14-14-17-17-17-17-
-x--|-x--x--x--x--x--x--x-x-x--x--x--x--x--x-x-|-x--x--x--x--x-x-x-x-|-x--x--x--x--x--x--x--x--
-7--|-12-12-12-11-11-11-7-7-12-12-12-11-11-7-7-|-12-12-11-11-7-7-7-7-|-12-12-11-11-14-14-14-14-
----|------------------------------------------|---------------------|-------------------------
----|------------------------------------------|---------------------|-------------------------
----|------------------------------------------|---------------------|-------------------------
16x                                                      2x

_______________________________________________________________________

2nd chorus-guitar1
---|---
---|---
-4-|---
-4-|-5-
-2-|-5-
---|-5-
30x 30x

2nd chorus-guitar2
-11-|-15-15-15-14-14-14-|-------------
-x--|-x--x--x--x--x--x--|-------------
-7--|-12-12-12-11-11-11-|-------------
----|-------------------|-------------
----|-------------------|-5h7-5-4-2-0-
----|-------------------|-------------
24x                           4x

_______________________________________________________________________

outro-guitar1
--------------------------------------10-10-10-10-10-|---------------|----|---------------
-----------------------------------------------------|-------10-12---|-12-|-------10-12---
-12-11-7h9-9-9-9-9-9--12-11-7h9--9-11----------------|-11-12-------9-|-12-|-11-12-------9-
-----------------------------------------------------|---------------|----|---------------
-----------------------------------------------------|---------------|----|---------------
-----------------------------------------------------|---------------|----|---------------

outro-guitar2
------------------------|-----------------|-------|-------
---------------12h13-12-|--------12----12-|-------|-------
--------7---7--12----12-|-7---7--12h14-12-|-7-----|-7---7-
-7---7--7h9-7-----------|-7h9-7-----------|---9-7-|-7h9-7-
-7h9-7------------------|-----------------|-------|-------
------------------------|-----------------|-------|------- 
Comments