Glass Casket - In Between The Sheets Chords & Tabs

 

In Between The Sheets Chords & Tabs

Glass Casket Chords & Tabs

Version: 2 Type: Tab 0 ratings
1 star 2 stars 3 stars 4 stars 5 stars
comments

In Between The Sheets Tab

   
Band: Glass Casket
Song: In Between The Sheets
Album: We Are Gathered Here Today...

Guitar Tuning (Low to High): C G C F A D

This is the part right before the clean interlude, the clean interlude, and the solo.
Thats really all i can figure out though.


   Distorted
||---------------------------------------------------||
||---------------------------------------------------||
||.-------------------------------------------------.|| Let Ring
||.-8----------------3----------1---------0---------.||
||--8----------------3----------1---------0----------||
||--8----------------3----------1---------0----------||



   Clean w/Delay
||---------1-0-----|-------1-0---0--h1p0h1p0---(0)---||
||-------3-----3\1-|-----3-----3---------------------||
||.----2-----------|---2----------------------------.|| Let Ring
||.--0-------------|-0------------------------------.||
||-----------------|---------------------------------|| x8
||-----------------|---------------------------------|| 
 


   Distorted w/Delay (or whatever you use for solo)
||-------------------|--------------------------||
||-------------------|--------------------------||
||.------------------|-------------------------.||
||.------------------|-15-14-15-17--14h15-14---.||
||--------17-15-17-19|----------------------15--|| 
||-12---xx-----------|------------------------17|| 


[ Tab from: http://www.guitartabs.cc/tabs/g/glass_casket/in_between_the_sheets_tab_ver_2.html ]
||--------------------|-------------------------------||
||--------------------|----17-18-20-18----------------||
||.-------------------|-17-------------17------------.||
||.15-14--15-14--15h17|-------------------17-15-14-15.||
||------15-----15-----|-------------------------------|| 
||--------------------|-------------------------------||



||------------------------|---------------------||
||------------------------|---------------------||
||.14h15p14-12------------|14h15p14-12---------.||
||.------------15-14b15r14|------------15-12-14.||
||------------------------|---------------------|| 
||------------------------|---------------------||



||-------------|??????????????|---------------------||
||-------------|??????????????|---------------------||
||.------------|??????????????|-------------10---9-.||
||.17-15-14----|crazy harmonic|-<17>--12-----------.||
||----------15-|??????????????|---------------------|| 
||-------------|??????????????|---------------------||

*The <17> harmonic is right after the crazy one i dont
know how to do, if you listen you can hear it. Who knows,
maybe its the same harmonic, just with some effect.

||----------------------|--------------------------||
||----------------------|--------------------------||
||.------14-12----------|-------14-12-------------.||
||.----12------15-14-15-|-----12------15-14b15r14-.||
||---12-----------------|---12---------------------|| x2
||-12-------------------|-12-----------------------|| 
pm ......                 ...... 


Thats all I got for now. Thanks to the guy that posted the clean part before this.
It helped me figure that stuff out. Try to find some more so the whole song can actually be up!
Comments