Glamour Of The Kill - Feeling Alive Chords & Tabs

 

Feeling Alive Chords & Tabs

Glamour Of The Kill Chords & Tabs

Version: 1 Type: Bass Tab

Feeling Alive Bass Tab

   
-------------------------------------------------------------------------------
			     Feeling Alive - Glamour of the Kill
-------------------------------------------------------------------------------

Tabbed By : Tom Godfrey
e-mail: holymoos@hotmail.co.uk

Intro - 0.00 - 0.10

No Bass


Intro II - 0.10 - 0.21

G|---------------------------------------------------------------------------|
D|---------------------------------------------------------------------------|
A|----555---333--------------------------------------------------------------|
E|-000---333---5533-(X3)--88888888-1010101010101010--------------------------|

Verse - 0.22 - 0.42
G|---------------------------------------------------------------------------|
D|---------------------------------------------------------------------------|
A|---------------------------------------------------------------------------|
E|-0000--------0000--------0000--------88888888-1010101010101010/-(X2)-------|

Chorus - 0.43 - 1.03
G|---------------------------------------------------------------------------|
D|---------------------------------------------------------------------------|
A|-7777--------3333-5555~--7777----------------------------------------------|
E|------3333~-------------------3333~--88888888-1010101010101010-(X2)--------|

Verse - 1.04 - 1.35 
G|---------------------------------------------------------------------------|
D|---------------------------------------------------------------------------|
A|----555---333--------------------------------------------------------------|
E|-000---333---5533-(X3)--88888888-1010101010101010/-------------------------|

G|---------------------------------------------------------------------------|
D|---------------------------------------------------------------------------|
A|---------------------------------------------------------------------------|
E|-0000--------0000--------0000--------88888888-1010101010101010/-(X2)-------|

Chorus - 1.35 - 1.57 
G|---------------------------------------------------------------------------|
D|---------------------------------------------------------------------------|
A|-7777--------3333-5555~--7777----------------------------------------------|
E|------3333~-------------------3333~--88888888-1010101010101010-(X2)--------|

Bridge - 1.58 - 2.06
G|---------------------------------------------------------------------------|
D|---------------------------------------------------------------------------|
A|-77-57~/---33-5~/----------------------------------------------------------|
E|-------------3------(X2)---------------------------------------------------|
[ Tab from: http://www.guitartabs.cc/tabs/g/glamour_of_the_kill/feeling_alive_btab.html ]
Guitar Solo - 2.06 - 2.22
G|---------------------------------------------------------------------------|
D|---------------------------------------------------------------------------| 
   . . . . . . . . . . . . . . . .
A|-7-7-7-7-7-7-7-7-5-5-5-5-5-5-5-5-------------------------------------------|
E|---------------------------------7\10/0------------------------------------|

G|---------------------------------------------------------------------------|
D|---------------------------------------------------------------------------|
   . . . . . . . . . . . . . . . . 
A|-7-7-7-7-7-7-7-7-5-5-5-5-5-5-5-5-5~----------------------------------------|
E|------------------------------------0--0--0--0-----------------------------|

Bass Solo - 2.22 - 2.28
G|---------------------------------------------------------------------------|
D|---------------------------------------------------------------------------|
A|----555---333--------555---333---------------------------------------------|
E|-000---333---5533-000---333---5--------------------------------------------|

Verse - 2.28 - 2.38 
G|---------------------------------------------------------------------------|
D|---------------------------------------------------------------------------|
A|----555---333--------------------------------------------------------------|
E|-000---333---5533-(X3)--00-00-00-00-0--------------------------------------|

Chorus - 2.39 - 2.59 
G|---------------------------------------------------------------------------|
D|---------------------------------------------------------------------------|
A|-7777--------3333-5555~--7777----------------------------------------------|
E|------3333~-------------------3333~--88888888-1010101010101010-------------|

G|---------------------------------------------------------------------------|
D|---------------------------------------------------------------------------|
A|-7777--------3333-5555~--7777----------------------------------------------|
E|------3333~-------------------3333~--8--------10---------------------------|

Outro - 3.00 - 3.28
G|---------------------------------------------------------------------------|
D|---------------------------------------------------------------------------|
A|---------------------------------------------------------------------------|
E|-63063063-00-00--63063063-88-1010--63063063-00-00--63063063-7-5-3-5-3-0----|

G|---------------------------------------------------------------------------|
D|---------------------------------------------------------------------------|
A|--------------------------------------------------------------------77-57--|
E|-63063063-00-00--63063063-88-1010--63063063-00-00--63063063-88-1010--------|



| /  slide up
| \  slide down
| h  hammer-on
| p  pull-off
| ~  vibrato
| +  harmonic
| x  Mute note
===============================================================================