Gladiators - Mix Up Chords & Tabs

 

Mix Up Chords & Tabs

Gladiators Chords & Tabs

Version: 2 Type: Bass Tab 0 ratings
1 star 2 stars 3 stars 4 stars 5 stars
comments

Mix Up Bass Tab

    Song : Mix up
    Artist : The Gladiators
    Album : Dreadlock the time is now
    Tabbed by : Cedric Weiss ( cedric.weiss@caramail.com )
[ Tab from: http://www.guitartabs.cc/tabs/g/gladiators/mix_up_btab_ver_2.html ]
    This is the live version of this song, but I am almost sure that it is 
    the same than the album version. This tablature is not totally completed,
    but I would say that, at least, 95 % is there, so enjoy !


     n times
 
    G|----------------------------|
    D|----------------------------|
    A|----------4-3-1-------------|
    E|--1-4-6-----------1-4-6-----|

     m times
 
    G|----------------------------|
    D|----------4-3-1-------------|
    A|--1-4-6-----------1-4-6-----|
    E|----------------------------|
Comments