Gits - Second Skin Chords & Tabs

 

Second Skin Chords & Tabs

Gits Chords & Tabs

Version: 1 Type: Tab 0 ratings
1 star 2 stars 3 stars 4 stars 5 stars
comments

Second Skin Tab

The Gits do exist, unfortunatly just as they started getting popular,
there vocalist Mia was murdered in 1993. 

Song is really simple
play each once (i thought about it hell..)
riff 1
|----------------------|
|----------------------| 
|--------5----7--------| 
|---7----5----7----5---| 
|---7----3----5----5---| 
|---5--------------3---|

(i have to tell myself...)
riff 1 only plam muted
[ Tab from: http://www.guitartabs.cc/tabs/g/gits/second_skin_tab.html ]
(each time i close my eyes..)
riff 1 played continously

riff 2
|------------------------------|
|------------------------------|
|--------5-----5--------5--5--7|
|--5--7--5--7--5--5--7--5--3--5|
|--5--7--3--7--3--5--7--3------|
|--3--5-----5-----3--5---------|

played a few times then during the end

i hope you enjoy, there arent many gits tabs at all on the internet so i thought i'd post one
contact greynunrun@yahoo.com for questions
Comments