Gits - Heres To Your Fuck Chords & Tabs

 

Heres To Your Fuck Chords & Tabs

Gits Chords & Tabs

Version: 2 Type: Bass Tab 0 ratings
1 star 2 stars 3 stars 4 stars 5 stars
comments

Heres To Your Fuck Bass Tab

THE GITS               Here's To Your Fuck
Bass tab transcribed by geniefur (grrrl_grrrms@hotmail.com)

Intro:
1, 2, 3, 4, 5, 6, 7, 8
G -3-0-----3-0--------|-3-0-----------------
D ----3-1-1---3-0-0---|-----3-5-5-5-5------
A --------------------|---------------------
E --------------------|---------------------

Verse:
G --------------------|---------------------
D --------------------|---------------------
A -5-3-1--------------|-5-3-1---------------
E -------3-3---3------|------3-3---3--------

G --------------------|---------------------
D --------------------|---------------------
A ---1-3-5-0-0-5-0-0--|--1-3-5-0-0-5--------
E -3------------------|-3-------------------
[ Tab from: http://www.guitartabs.cc/tabs/g/gits/heres_to_your_fuck_btab_ver_2.html ]
Chorus:
G --------------------|---------------------
D --------------------|--------0-0-0-0------
A -5-3-1----5-3-1-----|-5-3-1---------------
E ------3-3------2-2--|---------------------

Bridge:
G --------------------|---------------------
D --------------------|---------------------
A --------------------|---------------------
E -1--------1---------|---1------1----------

G --------------------|---------------------
D --------------------|--------0-0-0-0------
A -5-3-1----5-3-1-----|-5-3-1---------------
E ------3-3------2-2--|---------------------

ENDING:
A -10-----------------|

* this is basically the whole song. just keep playing the verse, then the
chorus, then the bridge over and over until you reach the ending. heart 
geniefur.
Comments