Girlschool - Wild At Heart Chords & Tabs

 

Wild At Heart Chords & Tabs

Girlschool Chords & Tabs

Version: 1 Type: Tab 0 ratings
1 star 2 stars 3 stars 4 stars 5 stars
comments

Wild At Heart Tab

   
-----------------------------------------------------------------------------
			    WILD AT HEART - Girlschool
-----------------------------------------------------------------------------

Tabbed by: Anne Drury
Email: zerofret_ad@hotmail.com
Date:  May 25, 2005

Written by:  K. McAuliffe, C. Bonacci
Album:  "Girlschool"    (1992, communique/Progressive International)


Notes:

^....bend
h....hammer on
r....release bend
p....pulloff
pm...palm mute (pm the note in front of the pm indicator)
/....slide up
\....slide down
tr...trill
~....vibrato
x....dead note (damp with fretting hand)

-Tuning: Standard
-The song is in the key of E. Guitar solo parts are in E minor.
-Timing: The song is in 4/4 time. For Figure 1 and the verses, bar lines
indicate one measure of 4/4 time. For the guitar solo and the slide guitar
solo, bar lines separate sections of music, and don't indicate actual timing.
-Play all chords as 5th chords.


Intro:


Figure 1 - play 4x
E(5)
 E --------0----|----------------------|
 B --------0----|----8--7--8--7--8-----|
 G -------------|----7--7--7--7--7-----|
 D ----2--------|----------------------|
 A ----2--------|----------------------|
 E ----0--------|----------------------|

1st Verse:


I feel betrayed by greed, by       Don't want to kneel in your
            by  your vanity           temple of insanity
E(5)
 E ---------------|---------------|----------------|----------------|
 B ----------8~---|----------7~---|----------8~----|----------------|
 G ------9pm------|------9pm------|------9pm-------|----------------|
 D --9pm----------|--9pm----------|--9pm-----------|-5-----7---7-7--|
 A ---------------|---------------|--------------7-|-5---7-7---7-7--|
 E ---------------|---------------|--------------7-|-----7----------|

Watch their beauty as they're      Out of sight,
                   running free    out of mind
E(5)
 E ---------------|---------------|----------------|----------------|
 B ----------8~---|----------7~---|----------8~----|----------------|
 G ------9pm------|------9pm------|------9pm-------|-5---5----------|
 D --9pm----------|--9pm----------|--9pm---------7-|-5---5-7---7-7--|
 A ---------------|---------------|--------------7-|-------7---7-7--|
 E ---------------|---------------|----------------|----------------|

2nd Verse:


You wear their skins as if         Ignorance is no way to survive
              it's your own right
E(5)
 E ---------------|---------------|----------------|----------------|
 B ----------8~---|----------7~---|----------8~----|----------------|
 G ------9pm------|------9pm------|------9pm-------|----------------|
 D --9pm----------|--9pm----------|--9pm-----------|-5-----7---7-7--|
 A ---------------|---------------|--------------7-|-5---7-7---7-7--|
 E ---------------|---------------|--------------7-|-----7----------|

We all belong to the animal nation, Open your eyes to the situation
E(5)
 E ---------------|---------------|----------------|----------------|
 B ----------8~---|----------7~---|----------8~----|----------------|
 G ------9pm------|------9pm------|------9pm-------|-5-----7---7-7--|
 D --9pm----------|--9pm----------|--9pm---------7-|-5---7-7---7-7--|
 A ---------------|---------------|--------------7-|-----7----------|
 E ---------------|---------------|----------------|----------------|

Chorus:       (Play Figure 1 4x)

All of my dreams, you tore them apart
Ripped at the seams, wild at heart


(Transition to 3rd verse):
Guitar part here is the same as 1st Verse


3rd Verse:      (Guitar part is same as 2nd Verse)

You're out of touch with the times that we live
You want to take it all, you've got nothing to give
You wear their skins but it won't be true
What makes you think they'll look better on you?


Chorus:      (Play Figure 1 4x)

All of my dreams, you tore them apart
Ripped at the seams, wild at heart


On staff below, play notes staccato and a bit percussively.
Second time through staff below, play E(5) power chord on 1st beat
of 1st and 3rd measures.

(4 measures) - play 2x

 E ---------------|-----------------|-------------------|----------------|
 B ----8-----8----|----7-----7-7----|----8-------8-8-8--|---7-----7------|
 G ------9------9-|------9----------|------9-----9-9-9--|-----9-----9----|
 D --9-----9------|--9-----9-----9--|--9-----9----------|-9-----9-----9--|
 A ---------------|-----------------|-------------------|----------------|
 E ---------------|-----------------|-------------------|----------------|

Figure 1 is played 8x during the guitar solo.

Guitar solo:


(half measure)

 E ---------------0-------|
 B -----------------------|
 G ----------2^w-----2-0--|
 D -----------------------|
 A -----------------------|
 E -----------------------|


(4 measures)
 E ------------------------------|-----------------------------------------|
 B ------------------------------|-----------------------------------------|
 G --7^w-7^w-7^w--7^w-7^wr(7)----|----------0-------0-2-2^wr(2)-0-2^w------|
 D ------------------------------|------0h2---2---2------------------------|
 A ------------------------------|--0h2------------------------------------|
 E ---------------------------3--|-----------------------------------------|
[ Tab from: http://www.guitartabs.cc/tabs/g/girlschool/wild_at_heart_tab.html ]
(4 measures)
 E --------------------------------|---------------------------------------|
 B -8h10-8-----8-7-8--7tr8---------|--------------------------------8------|
 G ---------9---------------7tr9~--|--12-12-12\11-11-11\9-9-9-7-9-9---9-7--|
 D --------------------------------|---------------------------------------|
 A --------------------------------|---------------------------------------|
 E --------------------------------|---------------------------------------|

(2 measures)
 E ------------------15--14------------------|
 B --15h17--17--17-----------15--15----------|
 G ------------------------------------------|
 D ------------------------------------------|
 A ------------------------------------------|
 E ------------------------------------------|

(tab on the first half of staff below isn't exact)
(2 measures)

 E ------------12--------------------------------------------------------|
 B ------12-12----15p12--------------------------------14^sr(14)^sr(14)--|
 G -14^w----------------12h14p12----12-----12------12--14^wr(14)^wr(14)--|
 D ------------------------------14----14--12--14--12--------------------|
 A --------------------------------------------14------------------------|
 E ----------------------------------------------------------------------|

(2 measures)
 E ------------------------------------------------------------|
 B ----------------------------14--14^sr(14)--12--14^s---------|
 G --12-x--12-x--12--------12--14--14^wr(14)--12--14^w---------|
 D --12-x--12-x--12----14--12----------------------------------|
 A --------------------14--------------------------------------|
 E ------------------------------------------------------------|

(2 measures)
 E ------------------------------------------------------------|
 B ------------------------------------------------------------|
 G --0--2p0---0--------------0-----2^wr(2)--0--2^w-------------|
 D ---------2---2-0-2--0--2-----2------------------------------|
 A ------------------------------------------------------------|
 E ------------------------------------------------------------|

4th Verse:      (Guitar part is same as 2nd Verse)

Just think of the money as you roll the dice
If you play to win you've got to pay the price
Too late the hero, the bringer of life
"Cause with the earth we will live and the earth we will die


Figure 1 is played 4x during slide guitar solo


Slide guitar solo:


(4 measures)
 E ----------------------------|---------------------------|
 B -----------8\7/8---7h8p7----|-------------/12-----------|
 G --/9---------------------7--|--/9\--------/12-----------|
 D ----------------------------|--/9\----------------------|
 A ----------------------------|---------------------------|
 E ----------------------------|---------------------------|

(4 measures)
 E ---------------------|--------12----12----12-----12\----|
 B ---------------/10---|---/12-----12----------12--12\----|
 G --12\11---/9---------|----------------------------------|
 D ---------------------|----------------------------------|
 A ---------------------|----------------------------------|
 E ---------------------|----------------------------------|

Outro:

For timing purposes, the Outro starts right after the first slide guitar
solo ends.

There are five guitar parts in the Outro/fade.


Guitar 1 - play Fig. 1 (from beginning of Outro right through to the fade)


Guitar 2 - starts at beginning of Outro
(2 measures shown) - play 4x
                                        Wild at heart...

 E --------12-12-12--------12-12-12---|--------12-12-12--------12-12-12---|
 B ---15^w------------15^w------------|---15^w------------15^w------------|
 G -----------------------------------|-----------------------------------|
 D -----------------------------------|-----------------------------------|
 A -----------------------------------|-----------------------------------|
 E -----------------------------------|-----------------------------------|

Guitar 3 - This line starts at beginning of Outro, goes through to fade

(4 measures shown here)

 E -------------------------|-------------------------|
 B ----8-7---8---7----------|---8-7---8---7-----------|
 G ------------------7/9~---|-----------------7/9~----|
 D -------------------------|-------------------------|
 A -------------------------|-------------------------|
 E -------------------------|-------------------------|

Guitar 4 - slide guitar part - this part starts where Guitar 2 part ends
(starts on 9th measure of Outro)

(4 measures)
 E -----------|-------------------|-----------|------------|
 B -----------|-------------------|-----------|--/12-------|
 G --/9-------|--12\11/12\11---7--|--/9-------|--/12-------|
 D -----------|-------------------|-----------|------------|
 A -----------|-------------------|-----------|------------|
 E -----------|-------------------|-----------|------------|


(slide guitar con'd)

(4 measures)
 E ---------------------|-------12----12---12--12-----12\--|
 B ---------------/10---|--/12-----12-------------12--12\--|
 G --12\11---/9---------|----------------------------------|
 D ---------------------|----------------------------------|
 A ---------------------|----------------------------------|
 E ---------------------|----------------------------------|

Guitar 5 - plays a percussive sounding 16th note part, starting on the
third measure of the Outro (not sure how it's played)


-----------------------------------------------------------------------

(This file is the transcriber's own work and represents
their interpretation of the song.)
Comments