Girlschool - Never Say Never Chords & Tabs

 

Never Say Never Chords & Tabs

Girlschool Chords & Tabs

Version: 1 Type: Tab 0 ratings
1 star 2 stars 3 stars 4 stars 5 stars
comments

Never Say Never Tab

   
-----------------------------------------------------------------------------
                        NEVER SAY NEVER - Girlschool
-----------------------------------------------------------------------------

Tabbed by: Anne Drury
Email: zerofret_ad@hotmail.com
Date: October 16, 2005

Written by: Jackie Chambers, Enid Williams
CD: "Believe"    (2004, Communiqué Records)

Notes:                             

-Tuning: Standard
-4/4 time - bar lines do indicate timing
-all leads in F# pentatonic minor


INTRO:

    F#                           D
 E |----------------------------|----------------------------|
 B |----------------------------|----------------------------|
 G |----------------------------|----------------------------| 
 D |--9^(11)-(11)r9-7---7-9-7-9-|-9^(11)-(11)r9-7---7~~---7--|
 A |------------------9---------|-----------------9----------|
 E |----------------------------|----------------------------|


    F#                          D
 E |----------------------------|----------------------------|
 B |----------------------------|----------------------------|
 G |----------------------------|----------------------------| 
 D |--9^(11)-(11)r9-7---7-9-7-9-|-9^(11)r9------7---7~~---7--|
 A |------------------9---------|-----------------9----------|
 E |----------------------------|----------------------------|


    F#                           D
 E |----------------------------|----------------------------|
 B |----------------------------|----------------------------|
 G |----------------------------|----------------------------| 
 D |--9^(11)-(11)r9-7---7-9-7-9-|-9^(11)-(11)r9-7---7~~---7--|
 A |------------------9---------|-----------------9----------|
 E |----------------------------|----------------------------|


    A                            D
 E |----------------------------|----------------------------|
 B |----------------------------|----------------------------|
 G |--9^(11)r9~~===============\|-6~~------------------------| 
 D |----------------------------|----------------------------|
 A |----------------------------|----------------------------|
 E |----------------------------|----------------------------|



1ST VERSE:

 F#                     D
Stir up a storm with a shot of adrenalin
 F#                      D
Devil may care, he said never again
        F#                       D
Yes, I would if I could but you know that I can't
        A                        D
Yes, I know that I should but I know that I shan't

No I


    F#                     D
 E ----------------------|----------------------------|
 B ----------------------|----------------------------|
 G ----------------------|----------------------------| 
 D -9^(11)r9-7---7-9-7-9-|-9^(11)r9-7---7~~---------7-|
 A ------------9---------|------------9---------------|
 E ----------------------|----------------------------|


    F#                          D
 E ---------------------------|-----------------------|
 B ---------------------------|-----------------------|
 G ---------------------------|-----------------------| 
 D -9^(11)-(11)r9-7---7-9-7-9-|-9^(11)r9-7---7~~------|
 A -----------------9---------|------------9----------|
 E ---------------------------|-----------------------|



2ND VERSE:

 F#                    D
Take me to heaven and take me to hell
         F#                            D
To the height of the heights, shall I fall, yes I fell
             F#                         D
Well, who's calling the shots 'cause I know that I'm stalling
        A                     D
Who's driving the wagon, I'm falling I'm falling


CHORUS:

 F#
Never say never say never again, no I
 A
Never say never say never again, no I
 D                   C
Never say never say never again, no I

(repeat first 3 lines)
 B
Never say never say never again


   
    F#                           D
 E |----------------------------|----------------------------|
 B |o---------------------------|---------------------------o|
 G |----------------------------|----------------------------|  Play 3x
 D |--9^(11)-(11)r9-7---7-9-7-9-|-9^(11)r9-7---7~~--------7--|
 A |o-----------------9---------|------------9--------------o|
 E |----------------------------|----------------------------|

[ Tab from: http://www.guitartabs.cc/tabs/g/girlschool/never_say_never_tab.html ]
    A                            D
 E |----------------------------|----------------------------|
 B |----------------------------|----------------------------|
 G |--9^(11)r9~~===============\|-6~~------------------------| 
 D |----------------------------|----------------------------|
 A |----------------------------|----------------------------|
 E |----------------------------|----------------------------|



3RD VERSE:

 F#                     D
Stir up a storm with a rush of adrenalin
 F#                      D
Devil may care, he said see you again
        F#                       D
Yes, I would if I could but you know that I can't
        A                          D
Yes, I know that I should but you know that I shan't

No I


CHORUS:

 F#
Never say never say never again, no I
 A
Never say never say never again, no I
 D                   C
Never say never say never again, no I
 B
Never say never say never again


BRIDGE:

 D
Shall I be taken or shall I be saved
             F#
Because I'm runnin' round in circles but who's runnin' the show
            D
And you're never alone with a shot in your hand
            B
Well, it's good-bye for now because I've gotta go


GUITAR SOLO:

   F#                           D
 E ----------------------------|----------------------------|
 B ------14---14------14-14-14-|-17^wr--14------------------|
 G -16^w---------16^w----------|-----------16~~-------------|
 D ----------------------------|--------------------7-<7>^q=|
 A ----------------------------|----------------------------|
 E ----------------------------|----------------------------|

    
   F#                           D
 E ----------------------------|----------------------------|
 B ----------------------------|-------------------------14-|
 G ----------------------------|----------------------------|
 D ==-----7--9--9^w-----9--9^w-|r(9)--7---------------------|
 A ----9-----------------------|---------9--9~~-------------|
 E ----------------------------|----------------------------|


   F#                              D
 E ------------------------14-17^w|==-17-14-----------14-14-|
 B -17p14------14-14-16-14--------|---------17~~------14-14-|
 G -------16----------------------|-------------------------|
 D -------------------------------|-------------------------|
 A -------------------------------|-------------------------|
 E -------------------------------|-------------------------|


   A                            D 
 E ----------------------------|----------------------------|
 B ------14-14--------14-14-14-|-17^wr--14------------------|
 G -16^w---------16^w----------|-----------16~~-------------|
 D ----------------------------|----------------------------|
 A ----------------------------|----------------------------|
 E ----------------------------|----------------------------|
    


CHORUS:

 F#
Never say never say never again, no I
 A
Never say never say never again, no I
 D                   C
Never say never say never again, no I

(repeat first 3 lines)
 B
Never say never say never again



    F#                           D
 E |----------------------------|----------------------------|
 B |o---------------------------|---------------------------o|
 G |----------------------------|----------------------------|  Play 3x
 D |--9^(11)-(11)r9-7---7-9-7-9-|-9^(11)r9-7---7~~--------7--|
 A |o-----------------9---------|------------9--------------o|
 E |----------------------------|----------------------------|


    A                            D
 E |----------------------------|----------------------------|
 B |----------------------------|----------------------------|
 G |--9^(11)r9~~===============\|-6~~------------------------| 
 D |----------------------------|----------------------------|
 A |----------------------------|----------------------------|
 E |----------------------------|----------------------------|



Repeat CHORUS 

-----------------------------------------------------------------------------
^...bend (w=whole step,q=quarter step)  
r...release bend                                        
p...pulloff
~...vibrato
\...slide down
=...hold note
<>..harmonic
o
o...repeat           

(This file is the transcriber's own work and represents their 
interpretation of the song.) 
Comments