Girlschool - Cmon Chords & Tabs

 

Cmon Chords & Tabs

Girlschool Chords & Tabs

Version: 1 Type: Tab

Cmon Tab

   
-----------------------------------------------------------------------------
                             C'MON - Girlschool
-----------------------------------------------------------------------------

Written by: Jackie Chambers, Kim McAuliffe, Enid Williams
CD: "Believe"    (2004, Communiqué Records)

Tabbed by: Anne Drury    (zerofret)
Email: zerofret_ad@hotmail.com
Date: January 4, 2006


INTRO:


 E ---------------------------------|---------------------------------|
 B ---------3-----------------------|---------3-----------------------|
 G ---4-5-4-------------3---3---3-4-|---4-5-4-------------3---3-------| Play
 D -5---------5---5-3-5-------------|-5---------5---5-3-5-------------|  2x
 A ---------------------------------|---------------------------------|
 E ---------------------------------|---------------------------------|


    G                       D5        G                       C5
 E ---------------------------------|---------------------------------|
 B ---------3-----------------------|---------3-----------------------|
 G ---4-5-4-------------3---3---3-4-|---4-5-4-------------3---3-------| Play
 D -5---------5---5-3-5-------------|-5---------5---5-3-5-------------|  2x
 A ---------------------------------|---------------------------------|
 E ---------------------------------|---------------------------------|
                                                   (2nd time)   Take a
                                                   (2nd time through,play
                                                   last note, Bb, as p.h.)

1ST VERSE:

 
    G5                      D5        G5                      C5
 E ---------------------------------|---------------------------------|
 B ---------------------------------|---------------------------------|
 G -------------------------7-------|-------------------------5-------| Play
 D -5---------5--x--5-------7-------|-5---------5--x--5-------5-------|  2x
 A -5---------5--x--5-------5-------|-5---------5--x--5-------3-------|
 E -3---------3--x--3---------------|-3---------3--x--3---------------|

1. look from every   angle and you    might just find the thrill, For-
2. -bidden fruit is always twice as   sweet, uh huh             Have a



    G                       D5        G                       C5
 E ---------------------------------|---------------------------------|
 B ---------------------------------|---------------------------------|
 G -4=----------------------7=------|-4=----------------------5=------| Play
 D -5=----------------------7=------|-5=----------------------5=------|  2x
 A -5=----------------------5=------|-5=----------------------3=------|
 E -3=------------------------------|-3=------------------------------|

1.taste for strange adventure and you're waiting for the kill,    Come
2. over  now  and  book  a  ringside  seat, uh huh            Don't



PRE-CHORUS:


    F                       D5        G                       A
 E ---------------------------------|---------------------------------|
 B ---------8---------------8-------|---------8---------------8-------|
 G ---0-7p0-----7-0---0-7p0-----7-0-|---0-7p0-----7-0---0-7p0-----7-0-|
 D ---------------------------------|---------------------------------|
 A ---------------------------------|---------------------------------|
 E ---------------------------------|---------------------------------|
    wait                    too       long                 to find


    F                       A         G                       A
 E ---------------------------------|---------------------------------|
 B ---------8---------------8-------|---------8---------------8-------|
 G ---0-7p0-----7-0---0-7p0-----7-0-|---0-7p0-----7-0---0-7p0-----7-0-|
 D ---------------------------------|---------------------------------|
 A ---------------------------------|---------------------------------|
 E ---------------------------------|---------------------------------|
    out                 you be   -    long                    Don't

[ Tab from: http://www.guitartabs.cc/tabs/g/girlschool/cmon_tab.html ]
    F                       D5        G                       A
 E ---------------------------------|---------------------------------|
 B ---------8---------------8-------|---------8---------------8-------|
 G ---0-7p0-----7-0---0-7p0-----7-0-|---0-7p0-----7-0---0-7p0-----7-0-|
 D ---------------------------------|---------------------------------|
 A ---------------------------------|---------------------------------|
 E ---------------------------------|---------------------------------|
    wait                    too       long                 to take a


    F                       A         G               F
 E ---------------------------------|---------------------------------|
 B ---------8---------------8-------|---------8---------------8-------|
 G ---0-7p0-----7-0---0-7p0-----7-0-|---0-7p0-----7-0---0-7p0-----7---|
 D ---------------------------------|---------------------------------|
 A ---------------------------------|---------------------------------|
 E ---------------------------------|---------------------------------|
    chance              and play a -  long
   


CHORUS:


    G                       D5        G                       C 
 E ---------------------------------|---------------------------------|
 B ---------3-----------------------|---------3-----------------------|
 G ---4-5-4-------------3---3---3-4-|---4-5-4-------------3---3-------| Play
 D -5---------5---5-3-5-------------|-5---------5---5-3-5-------------|  2x
 A ---------------------------------|---------------------------------|
 E ---------------------------------|---------------------------------|
 C'mon,                     get  it   on           (2nd time through,play
                                                   last note, Bb, as p.h.)
                                                      

2ND VERSE:    (played same as 1st Verse)

I'll take you window shopping just to whet your appetite
So fix your gaze and see just what's in store, uh huh
Come over here and get a little taste of what's to come
Feast your eyes and you'll be back for more, uh huh


Then: Play PRE-CHORUS


Then: Play CHORUS


Then:                                                     

    F                       A         G                      (A) 
 E ---------------------------------|---------------------------------|
 B ---------8---------------8-------|---------8---------------8-------|
 G ---0-7p0-----7-0---0-7p0-----7-0-|---0-7p0-----7-0---0-7p0-----7-0-| Play
 D ---------------------------------|---------------------------------|  2x
 A ---------------------------------|---------------------------------|
 E ---------------------------------|---------------------------------|
  C'mon,                    get  it   on                   (no A chord here
                                                           2nd time through)


BREAK:


 E ---------------------------------|---------------------------------|
 B ---------8---------------8-------|---------8---------------8-------|
 G ---0-7p0-----7-0---0-7p0-----7-0-|---0-7p0-----7-0---0-7p0-----7-0-| Play
 D ---------------------------------|---------------------------------|  2x
 A ---------------------------------|---------------------------------|
 E ---------------------------------|---------------------------------|



CHORUS:


    G                       D5        G                       C 
 E ---------------------------------|---------------------------------|
 B ---------3-----------------------|---------3-----------------------|
 G ---4-5-4-------------3---3---3-4-|---4-5-4-------------3---3-------| Play
 D -5---------5---5-3-5-------------|-5---------5---5-3-5-------------|  7x
 A ---------------------------------|---------------------------------|
 E ---------------------------------|---------------------------------|
 C'mon,                     get  it   on


    G                       D5        G 
 E ---------------------------------|---------------------------------|
 B ---------3-----------------------|---------3-----------------------|
 G ---4-5-4-------------3---3---3-4-|---4-5-4-------------3--<3>------|
 D -5---------5---5-3-5-------------|-5---------5---5-3-5-------------|
 A ---------------------------------|---------------------------------|
 E ---------------------------------|---------------------------------|
C'mon,'cause it's the right time
                            Get  it   on
                            
                        
-----------------------------------------------------------------------------
p...pulloff                    =...hold note
x...muted note                 <>..(p.h.) pinch harmonic

(This file is the transcriber's own work and represents their 
interpretation of the song.)