Girls In Hawaii - Short Song For A Short Mind Chords & Tabs

 

Short Song For A Short Mind Chords & Tabs

Girls In Hawaii Chords & Tabs

Version: 1 Type: Tab 0 ratings
1 star 2 stars 3 stars 4 stars 5 stars
comments

Short Song For A Short Mind Tab

Author/Artist: Girls in Hawaii
Title: Short song for a short mind
Album: From here to There
Transcribed by: Jorge Gil
Email: jorgegil17@gmail.com


Intro:

-|-2------------0------------2-------------0-------------|-2------------------|
-|-2------------0------------3-------------0-------------|-2------------------|
-|-2------------1------------4-------------1-------------|-2------------------|
-|-4------------2------------4-------------2-------------|-4------------------|
-|-4------------2------------2-------------2-------------|-4------------------|
-|-2------------0------------2-------------0-------------|-2------------------|
                                                        x4
Verse:

-|-2------------0------------2-------------0-------------|--------------------|
-|-2------------0------------3-------------0-------------|--------------------|
-|-2------------1------------4-------------1-------------|--------------------|
-|-4------------2------------4-------------2-------------|--------------------|
-|-4------------2------------2-------------2-------------|--------------------|
-|-2------------0------------2-------------0-------------|--------------------|
                                                        x2

You want to go...	             Where you never went before...
You want me to to bring you... To something new...

-|-0----------2----------0----------2--3--2----2----------4-------------------|
-|-2----------3----------0----------3--3--3----3----------5-------------------|
-|-2----------4----------1----------2--2--2----4----------6-------------------|
-|-2----------4----------2----------0----------4----------6-------------------|
-|-0----------2----------2----------0----------2----------4-------------------|
-|-0----------2----------0----------0----------2----------4-------------------|

This smile is all I have to offer you...       Maybe I'm just dumb

Verse:

-|-2------------0------------2-------------0-------------|--------------------|
-|-2------------0------------3-------------0-------------|--------------------|
-|-2------------1------------4-------------1-------------|--------------------|
-|-4------------2------------4-------------2-------------|--------------------|
-|-4------------2------------2-------------2-------------|--------------------|
-|-2------------0------------2-------------0-------------|--------------------|
                                                        x2

I think I have a problem with myself...
I' m sure you'll be fine with someone else...
[ Tab from: http://www.guitartabs.cc/tabs/g/girls_in_hawaii/short_song_for_a_short_mind_tab.html ]
-|-0----------2----------0----------2--3--2----2----------4--|--2-------------|
-|-2----------3----------0----------3--3--3----3----------5--|--3-------------|
-|-2----------4----------1----------2--2--2----4----------6--|--4-------------|
-|-2----------4----------2----------0----------4----------6--|--4-------------|
-|-0----------2----------2----------0----------2----------4--|--2-------------|
-|-0----------2----------0----------0----------2----------4--|--2-------------|

A beer is all I have to offer you... Am I drinking to much ?

Bridge:

-|-2--------4----2-------------0----2-------0----2------------|---------------|
-|-3--------5----3-------------2----3-------2----3------------|---------------|
-|-4--------6----2-------------2----2-------2----2------------|---------------|
-|-4--------6----0-------------2----0-------2----0------------|---------------|
-|-2--------4----0-------------0----0-------0----0------------|---------------|
-|-2--------4----0-------------0----0-------0----0------------|---------------|
                                                             x2
Don't have anything        to do       with you
You won't have good things to do       with you

-|-2-------------4------------2-----2-------2-----2-----------|---------------|
-|-3-------------5------------2-----3-------2-----3-----------|---------------|
-|-4-------------6------------2-----4-------2-----4-----------|---------------|
-|-4-------------6------------4-----4-------4-----4-----------|---------------|
-|-2-------------4------------4-----2-------4-----2-----------|---------------|
-|-2-------------4------------2-----2-------2-----2-----------|---------------|

We fell to that art to be affraid with you

-|-2-------------4--------------------------------------------|---------------|
-|-3-------------5--------------------------------------------|---------------|
-|-4-------------6--------------------------------------------|---------------|
-|-4-------------6--------------------------------------------|---------------|
-|-2-------------4--------------------------------------------|---------------|
-|-2-------------4--------------------------------------------|---------------|

Do you want the sun ?

Outro:

-|-2------------0------------2-------------0-------------|--------------------|
-|-2------------0------------3-------------0-------------|--------------------|
-|-2------------1------------4-------------1-------------|--------------------|
-|-4------------2------------4-------------2-------------|--------------------|
-|-4------------2------------2-------------2-------------|--------------------|
-|-2------------0------------2-------------0-------------|--------------------|
                                                        x2
Hahaha

-|-0----------2----------0----------2--3--2----2----------4--|----------------|
-|-2----------3----------0----------3--3--3----3----------5--|----------------|
-|-2----------4----------1----------2--2--2----4----------6--|----------------|
-|-2----------4----------2----------0----------4----------6--|----------------|
-|-0----------2----------2----------0----------2----------4--|----------------|
-|-0----------2----------0----------0----------2----------4--|----------------|


Hahaha

(after this same chords than bridge)
Comments