Girls In Hawaii - Dead Bird Song Chords & Tabs

 

Dead Bird Song Chords & Tabs

Girls In Hawaii Chords & Tabs

Version: 1 Type: Tab 0 ratings
1 star 2 stars 3 stars 4 stars 5 stars
comments

Dead Bird Song Tab

   
#----------------------------------PLEASE NOTE--------------------------------#
#This file is the author's own work and represents their interpretation of the#
#song. You may only use this file for private study, scholarship, or research.#
#-----------------------------------------------------------------------------#
#-- File created with Instab - http://www.pconline.com/~smcarey/instab.html --#
#-----------------------------------------------------------------------------#

Author/Artist: Girls in Hawaii
Title: Dead Bird Song
Album: Found in the Ground Ep
Transcribed by: Jorge Gil
Email: jorgegil17@gmail.com

G1 is an acoustic guitar and G2 is an electric guitar with slow distorsion.

Chords used:

A7:   575655
C#m7: 446454
Bm7:  224232
E:    022100

Fig 1:

-|-2--2--2--|-----------------------------------------------------------------|
-|-3--3--3--|-----------------------------------------------------------------|
-|-2--4--4--|-----------------------------------------------------------------|
-|-4--4--4--|-----------------------------------------------------------------|
-|-2--2--2--|-----------------------------------------------------------------|
-|-0--2--0--|-----------------------------------------------------------------|

Part 1: Verse (Only Guitar 1)

Am7	               C#m7	             Bm7
  People are looking strange today. Do you feel the same?
Am7	             C#m7	        Bm7
  Oh, is it just a funny way to lock this place
Am7	          C#m7	          Bm7     Fig 1     E
Yesterday could seems so far from this day,         oh yeah...

Am7	         C#m7	        Bm7
  We are two under the sun and feeling fun
Am7	                  C#m7	        Bm7
  Just try to keep your eyes open and stay awake until the sun goes
Am7	            C#m7	          Bm7     Fig 1     E
down we've been I know we getting to change         always, always...


Part 2: Enter Guitar 2

G1:   Am7	        C#m7 	     Bm7             E                 x3

-|-----------------------------------------------------------------------|----|
-|--/5--/7--/9------/5--/7--2------/5--/7--/9------/5--/7--2-------------|----|
-|-----------------------------------------------------------------------|----|
-|-----------------------------------------------------------------------|----|
-|-----------------------------------------------------------------------|----|
-|-----------------------------------------------------------------------|----|
G2
[ Tab from: http://www.guitartabs.cc/tabs/g/girls_in_hawaii/dead_bird_song_tab.html ]
-|-----------------------------------------------------------------------|----|
-|--/5--/7--/9------/5--/7--2------/5--/7--/9------/5--/7--2--3----------|----|
-|-----------------------------------------------------------------------|----|
-|-----------------------------------------------------------------------|----|
-|-----------------------------------------------------------------------|----|
-|-----------------------------------------------------------------------|----|
G2

-|-----------------------------------------------------------------------|----|
-|--/5--/7--/9------/10---9--------/5--/7--/9--2---/3--/5--/7--/9--------|----|
-|-----------------------------------------------------------------------|----|
-|-----------------------------------------------------------------------|----|
-|-----------------------------------------------------------------------|----|
-|-----------------------------------------------------------------------|----|
G2

Part 3:

Am7	     C#m7 	            Bm7                    E
I know you lose your time, tonight is close, we will back on time
Am7	        C#m7 	        Bm7                     E
You know, you need sometimes to shell your mind and the trees are right
Am7	       C#m7 	          Bm7          E
I know, this place is nice 'cause I decide to make it bright
Am7	          C#m7 	        Bm7                E
I know, you can feel the same, open your eyes and show your face


Part 4:

G1:  Am7	        C#m7 	      Bm7             E
I know you        lose your time, tonight is close, we will back on time

-|-----------------------------------------------------------------------|----|
-|--/5--/7--/9------/5--/7--2------/5--/7--/9------/5--/7--2--3----------|----|
-|-----------------------------------------------------------------------|----|
-|-----------------------------------------------------------------------|----|
-|-----------------------------------------------------------------------|----|
-|-----------------------------------------------------------------------|----|
G2

G1:    Am7	        C#m7 	     Bm7             E

-|-----------------------------------------------------------------------|----|
-|--/5--/7--/9-----9b10r9---10-9---/5--/7--/9--2---/3--/5--/7--/9--10----|----|
-|-----------------------------------------------------------------------|----|
-|-----------------------------------------------------------------------|----|
-|-----------------------------------------------------------------------|----|
-|-----------------------------------------------------------------------|----|
G2
Comments