Girls In Hawaii - Bees And Butterflies Chords & Tabs

 

Bees And Butterflies Chords & Tabs

Girls In Hawaii Chords & Tabs

Version: 1 Type: Bass Tab 0 ratings
1 star 2 stars 3 stars 4 stars 5 stars
comments

Bees And Butterflies Bass Tab

   
-------------------------------------------------------------------------------
			     BEES AND BUTTERFLIES - Girls in Hawaii
-------------------------------------------------------------------------------

Tabbed By : Sida
e-mail: 

Tuning: standard

intro
|-----------------------|-----------------------|---------------------|---------------------|
|-4-4--7-7--4-----------|-----------------------|---------------------|---------------------|
|-------------4-5--5-4--|-2-2--5-5--4-----------|-------4--5---5--5-7-|-2---5---4-----------|
|-----------------------|-------------4-5--5-4--|-2-2--5--------------|-----------4-5--5-4--|

|-----------------------|-----------------------|----------------------|----------------------|
|-4-4--7-7--4-----------|-----------------------|----------------------|----------------------|
|-------------4-5--5-4--|-2-2--5-5--4-----------|--------4--5-4-5--5-7-|-2-2--5-5--4----------|
|-----------------------|-------------4-5--5-4--|-2-2--5---------------|-------------4-5--5-4-|

|-----------------------|-----------------------|---------------------|---------------------|
|-4-4--7-7--4-----------|-----------------------|---------------------|---------------------|
|-------------4-5--5-4--|-2-2--5-5--4-----------|-------4--5-4-5--5-7-|-2---5---4-----------|
|-----------------------|-------------4-5--5-4--|-2-2--5--------------|------------4-5--5-4-|

		  verse
|---------------|----------------|---------------|-----------------|------------------------|
|--4----4----4--|-4--------------|---------------|-----4-----------|------------------------|
|---------------|-----4---5--7--|-2---5---4-----|---------5---12/-|-2---0-2--4---0-4-------|
|---------------|----------------|-------------5-|-2---------------|------------------------|

|---------------|---------------|--------------------|--------------------|-------------------|
|-4-------------|---------------|-------------4--6-7-|------4------3--6-3-|-4----4----6-7-6-|
|-----4---5--7-|-2---5---4-----|--------4--5--------|-2-5----5--4--------|---5----5----------|
|---------------|-------------5-|-2-4--5-------------|--------------------|-------------------|

|-------------------|---------------------|------------------|-----------------|
|-------------------|------4----6-7--9-11-|------------------|-----------------|
|-----4-------4-4-0-|-2-5----5------------|-----------4--5---|-2---4-------4-0-|
|-2-------2---------|---------------------|-5---0---5------4-|---------2-------|
[ Tab from: http://www.guitartabs.cc/tabs/g/girls_in_hawaii/bees_and_butterflies_btab.html ]
|-----------------|----------------4-|-6-4--------------4-|-6--------|-----------------------|
|-----------------|-----------3--6---|------6-3----3--6---|---6--7-6-|-4--7-7--7-7--4--------|
|-2---4-------4-0-|-2---3---4--------|-----------4--------|----------|----------------4--5-4-|
|---------2-------|------------------|--------------------|----------|-----------------------|

|--------------------|-----------------------|------------------|
|--------------------|-----------------------|------------------|
|-2-2--5-5--4--------|--------4--5--4-5--5-7-|-2---5---4--------|
|-------------4--5-4-|-2-2--5----------------|-----------4--5-4-|

|-----------------------|-----------------------|--------------------|--------------------|
|-4-4--7-7--4-----------|-----------------------|-------------4--6-7-|------4------3--6-3-|
|-------------4-5--5-4--|-2-2--5-5--4-----------|--------4--5--------|-2-5----5--4--------|
|-----------------------|-------------4-5--5-4--|-2-4--5-------------|--------------------|

|--------------------|--------------------|---------------------|------------------|
|----------4--6--6-7-|--------------------|-----4---6--7--9--11-|------------------|
|--5--5-5------------|-----4-------4--4-0-|-5-------------------|-----------4--5-4-|
|--------------------|-2-------2----------|---------------------|-5---0---5--------|

|------------------|------------------|------------|------------|-----|
|------------------|------------------|------------|------------|-----|
|-2---4----------4-|-2---4----------4-|-2---3---4--|--4------4--|-----|
|---------2--------|---------2--------|------------|------------|--2--|

guitar

|-----------------|-------------------|-------------------|------------------|
|--4-----------2--|-------------------|------4------------|------------------|
|------4---5------|--2---5---4--------|----------5---12/--|-2--------4---2-0-|
|-----------------|--------------5--4-|--2----------------|-----2-4----------|

|--------6--7-6--4---|-4------------------|-------------------|----------------4-|
|-4-6--7-----------7-|---7--6-4--3----3-6-|-------------------|-----------3--6---|
|--------------------|-------------4------|------4---5---12/--|-2-------4--------|
|--------------------|--------------------|--2----------------|-----2------------|

|-6-4--------------|--------|
|------6-3---------|--------|
|-----------4---4--|--------|
|------------------|--5--4--|

|----------------------------|----------------------------|----------------------------|
|----------------------------|----------------------------|----------------------------|
|------------4--5-5-5--4-0-x-|--------0-0-4--5-5-5--5-----|--------0-0-4--5-5-5--4-0---|
|-2-2-2--2-2-----------------|-2-2-2------------------0-1-|-2-2-2--------------------4-|

|----------------------------|-------------|
|----------------------------|----------4--|
|------------4--5-5-5--5-----|------4------|
|-2-2-2--2-2-------------0-1-|--2----------|


| /  slide up
| \  slide down
| h  hammer-on
| p  pull-off
| ~  vibrato
| +  harmonic
| x  Mute note
===============================================================================
Comments