Girls Germs - Baywatch Girl Chords & Tabs

 

Baywatch Girl Chords & Tabs

Girls Germs Chords & Tabs

Version: 1 Type: Tab 0 ratings
1 star 2 stars 3 stars 4 stars 5 stars
comments

Baywatch Girl Tab

   
Girls Germs - Baywatch Girl

Tabbed By Ryan and Mitchell

Standard Tuning - Low to High (E, A, D, G, B, E)
  
Intro
e|--------------------------------------|
B|--------------------------------------|
G|-99999--------------------------------|
D|-99999--99999--77777------------------|  x4
A|-77777--99999--77777------------------|
E|--------77777--55555------------------|

e|--------------------------------------|
B|--------------------------------------|
G|-9-9----------------------------------|
D|-9-9---9-9---7-7-7-7------------------|  x4
A|-7-7---9-9---7-7-7-7------------------|
E|-------7-7---5-5-5-5------------------|

Verse
e|--------------------------------------|
B|--------------------------------------|
G|--------------------------------------|
D|-2222--9999--77777777-----------------|  x8
A|-2222--9999--77777777-----------------|
E|-0000--7777--55555555-----------------|
  PM--------------------->

Chorus
e|--------------------------------------|
B|--------------------------------------|
G|-9999---------------------------------|
D|-9999--9999--7777-7777----------------|  x4
A|-7777--9999--7777-7777----------------|
E|-------7777--5555-5555----------------|

Verse - x4

Chorus - x4
[ Tab from: http://www.guitartabs.cc/tabs/g/girls_germs/baywatch_girl_tab.html ]
Bridge                    (1st, 2nd, 3rd time only)   
e|------------------------|--------------|
B|------------------------|----9---------|
G|------------------------|-9---9-9------|
D|-7-7---9-9---7-7---9-9--|-9----9-9-----|
A|-7-7---9-9---7-7---9-9--|-7------------|
E|-5-5---7-7---5-5---7-7--|--------------|

Solo
e|-------------------------------------------|
B|-------------------------------------------|
G|-9-99-9--9-9-9---------------9-99-9--9-9-8-|
D|---------------8-88-8--8-8-8---------------|
A|-------------------------------------------|
E|-------------------------------------------|

e|--------------------------------------------|
B|--------------------------------------------|
G|-------------8--9-99-9--9-9-9---------------|
D|-9-99-9--9-9------------------8-88-8--8-8-8-|
A|--------------------------------------------|
E|--------------------------------------------|

e|--------------------------------------|
B|--------------------------------------|
G|--------------------------------------|
D|-9-99-9--9-9-9-12--12-12-12-12-12-----|
A|--------------------------------------|
E|--------------------------------------|

Outro
e|--------------------------------------|
B|--------------------------------------|
G|-9999---------------------------------|
D|-9999-9999-77777777-------------------|  x7
A|-7777-9999-77777777-------------------|
E|------7777-55555555-------------------|

e|--------------------------------------|
B|--------------------------------------|
G|-9------------------------------------|
D|-9----9----7--------------------------|
A|-7----9----7--------------------------|
E|------7----5--------------------------|

email for corrections ska_punker88@hotmail.com
Comments