Girls Dead Monster - Ichiban No Takaramono Chords & Tabs

 

Girls Dead Monster Chords & Tabs

Version: 1 Type: Tab 0 ratings
1 star 2 stars 3 stars 4 stars 5 stars
comments

Ichiban No Takaramono Tab

   
Last update: 2010/08/03
v1.4 by flipocrisy

Version History:
V1.0 2010/06/27 - Original draft.
v1.1 2010/06/28 - Tabbed verse and formatting.
v1.2 2010/06/28 - Changed G#13 to G#6
v1.3 2010/07/13 - Corrected tablature format
v1.4 2010/08/03 - Changed Gm7 to A# sus2/G

Intro
[note: C add11 = x32011, C6 add11 = x02211]
A#sus2   C add11   C6 add11   F (sus4 hammer/pull)
A#sus2   C add11   Dm        Dm7      F

Verse 1
[note: D m(maj7) or A aug/D = xx0221, F sus4/G = 3x331x]]
[    : G# 6 = 466564 or xx1111]
A#sus2    C        Am       F          Am
A#sus2    C        Dm       Dm(maj7)

E ----------|
B ----------|
G ----------|
D -4--5p4---|
A -5-----5--|
E ----------|

Fsus4/G   Am      A#sus2   Dm
Fsus4/G   Am      G#6      A#sus2      Cadd11
A#sus2    Cadd11

Chorus
[note:  Dsus2(maj7) = xx0220, A/F# or modified F#m7 = 202220)]
A sus2/F#   Dsus2(maj7)   E    A (maj7 pull/hammer)
A sus2/F#   Dsus2(maj7)   E (sus4 hammer/pull)   
A (maj7 pull/hammer)
A sus2/F#   D sus2(maj7)   E (sus4 hammer/pull)   
A (maj7 pull/hammer)
A sus2/F#   D sus2(maj7)   E (sus4 hammer/pull)   A

Interlude
A#sus2   Cadd11   C6 add11   F  (sus4 hammer/pull)
A#sus2   Cadd11   Dm   Dm(maj7)   Dm7      F

Verse 2
(same) except:
E ----------|
B ----------|
G ----------|
D -4--5-4---|
A -5------5-|
E ----------|

Interlude 2
(Rhythm = Chorus)
[ Tab from: http://www.guitartabs.cc/tabs/g/girls_dead_monster/ichiban_no_takaramono_tab.html ]
(solo)
[
E ------------------------------------------------|
B ------------------------------------------------|
G ------------------------------------------------|
D 5/7-6-7-------7-7/9-11----5/7-6-7-----7-7/9-11--|
A --------5/7-5---------------------7-5-----------|
E ------------------------------------------------|

E ----------------------------------------------------|
B ----------------------------------------------------|
G ----------------------------------------------------|
D --5/7-6-7-----7-7/9-11----7-7/9-7-------------------|
A ----------7-5---------------------4/5-4-------------|
E ----------------------------------------5/7-7\5-5-5-|
](x2)

Chorus

Chorus (key change)
[note: A# sus2/G = 313311]
A# sus2/G   D#   F (sus4 hammer/pull)  A# 
(maj7 pull/hammer)
(x4)

Outro:
[
E --------------------------------------------------|
B --------------------------------------------------|
G --------------------------------------------------|
D 6/8-7-8-------8-8/10-12----6/8-7-8-----8-8/10-12--|
A --------6/8-6----------------------8-6------------|
E --------------------------------------------------|

E ------------------------------------------------------|
B ------------------------------------------------------|
G ------------------------------------------------------|
D --6/8-7-8-----8-8/10-12----8-8/10-8-------------------|
A ----------8-6-----------------------5/6-5-------------|
E ------------------------------------------6/8-8\6-6-6-|
](x3)

E -4/6-5-6-----6-8-10----4/6-5-6-----6-8-8/10--|
B ---------6p4-------------------6p4-----------|
G ---------------------------------------------|
D ---------------------------------------------|
A ---------------------------------------------|
E ---------------------------------------------|

E --4/6-5-6-----6-8-10----6-6/8-6-------3/5-5-5\3-3---------|
B ----------6\4-------------------3/4-3---------------------|
G ----------------------------------------------------------|
D ----------------------------------------------------------|
A ----------------------------------------------------------|
E ----------------------------------------------------------|

E -6/8-6-----3/5-5-5\3-3--6/8-----3/5-5\3-3-|
B -------4-3------------------4-3-----------|
G ------------------------------------------|
D ------------------------------------------|
A ------------------------------------------|
E ------------------------------------------|
Comments