Girls Against Boys - Park Avenue Chords & Tabs


Park Avenue Chords & Tabs

Girls Against Boys Chords & Tabs

Version: 1 Type: Tab 0 ratings
1 star 2 stars 3 stars 4 stars 5 stars

Park Avenue Tab

Park Avenue- Girls Against Boys
CD: Freak On Ica
Tabber: Mitchell (
Tuning: Standard

A really cool industrial song I tabbed. I don't know anything about the group
so I don't know the number of guitars there are. You can get away with one
playing what's below. I'm pretty sure most of the chords are played by
muting the D string, except for the intro. Here goes:

Here's the main riff:
e -------------------------------------------------------------
B -------------------------------------------------------------
G -7-7-7-7--5-----7-7-7-7--5-----7-7-7-7--5-----7-7---(wah)----
D -7-7-7-7--5-7---7-7-7-7--5-7---7-7-7-7--5-7---7-7--5-7-8-5~--
A -5-5-5-5--3-7---5-5-5-5--3-7---5-5-5-5--3-7---5-5------------
E -5-5-5-5--3-5---5-5-5-5--3-5---5-5-5-5--3-5---5-5------------

Verses just have keyboards and synthesizers
[ Tab from: ]
e ------------|------------------------------
B ---(wah)----|------------------------------
G -5/7---5/7--|-3-3-3-3/9--9/10-10-10-10-10--
D -x-x---x-x--|-x-x-x-x-x--x-x--x--x--x--x---
A -3/5---3/5--|-1-1-1-1/7--7/8--8--8--8--8---
E ------------|------------------------------

Post-chorus:                 (after second chorus)
e --------------------------|--------------------------------
B --------------------------|--------------------------------
G -10~----9/5---10~----9/5--|-7/11~---7/10~---7/11~---7/10~--
D -x------x-x---x------x-x--|-x-x-----x-x-----x-x-----x-x----
A -8~-----7/3---8~-----7/3--|-5/9~----5/8~----5/9~----5/8~---
E --------------------------|--------------------------------

End on a D5

Chords: A5: 577xxx   C5: 3355xx   D5: 5577xx

Tab originally from: