Girl Korea - Under The Sun Chords & Tabs

 

Under The Sun Chords & Tabs

Girl Korea Chords & Tabs

Version: 1 Type: Tab

Under The Sun Tab

Although this band broke up, they had some really great solo lines. find em on asian man records.

this is the solo from the intro

---10-----------7----------5-----------------------------|
--------5---8---------8----------------------------------|
---------------------------------------------------------|
----------------------------         X2   ---------------|
---------------------------------------------------------|
---------------------------------------------------------|

----10----------7--------5---5\3----------------------------|
--------5---8--------8--------------------------------------|
------------------------------------------------------------|
------------------------------------------------------------|
------------------------------------------------------------|
------------------------------------------------------------|
[ Tab from: http://www.guitartabs.cc/tabs/g/girl_korea/under_the_sun_tab.html ]
----15-----------------10-----------------------------------|
----------10----12----------10-----12-----------------------|
------------------------------------------------------------|
-----------------------------       X2          ------------|
------------------------------------------------------------|
------------------------------------------------------------|

----15------------------10----------------------------------|
-----------10-----12---------10----10----10\8-----8---------|
------------------------------------------------------------|
------------------------------------------------------------|
------------------------------------------------------------|
------------------------------------------------------------|

---3\2---------------3----3\2---------------------------   --|
------------3----0--------------------3----0----0-------  ---|
------------------------------------------------------2------|
-------------------------------------------------------------|
-------------------------------------------------------------|
-------------------------------------------------------------|

-------------------------------------------------------------|
---0----0-------0--------------------------------------------|
-------------2-------2-----0---------------------------------|
-------------------------------------------------------------|
-------------------------------------------------------------|
---------------------------------------------------------- --|
 repeat the last two lines (its one phrase)