Gipsy Kings - Hotel California (cover) Chords & Tabs

 

Hotel California (cover) Chords & Tabs

Gipsy Kings Chords & Tabs

Version: 1 Type: Tab 0 ratings
1 star 2 stars 3 stars 4 stars 5 stars
comments

Hotel California (cover) Tab

   
#----------------------------------PLEASE NOTE---------------------------------#
#This file is the author's own work and represents their interpretation of the #
#song. You may only use this file for private study, scholarship, or research. #
#------------------------------------------------------------------------------##

Hotel California as performed by the Gipsy Kings ...


Intro:
  Bm             F#         A                     E         G               D
                                   /-3-\                       /-3-\
||--------------------------|-------------------------|-------------------0---|
||-3p2h3---2-3-5------------|---------------------5---|---------3-3-3-2-3-----|
||---------------3----p1---2-2----7-7-7-6-4-6-7-------|-----0-----------------|   
||------------------------4-|-}2--------------------6-|-2h4-----------------4-|
||--------------------------|-.0----------------------|-----------------------|
||--------------------------|-------------------------|-----------------------|

                  Em                              F#
[simplified...........]                   /-3-\
|-----------0-3-2----------0h2h3-5-3-5-3--6-6-6-7-8-7-----|
|-0-2-3-2-3-------3-2-0-------------------------------8-7-|
|---------------------------------------------------------|
|---------------------------------------------------------|
|---------------------------------------------------------|
|---------------------------------------------------------|

 Bm                F#                             A                  E
                   /-3-\      /-3-\                   /-3-\
|-------------------------------------------------|----------------0---|
|---3p2h3----2-3-5-3-3-3--------------------------|---3-3-3p2--2-3-----|
|-------------------------4-3---------------6p5-6h7------------------1-|
|-4---------------------------5-5-5-4-5-4---------|--------------------|
|-------------------------------------------------|--------------------|
|-------------------------------------------------|--------------------|

          G                 D
|-------------------0-----0-------|
|---------------2-3---3-2---------|
|-2---2---0---4-------------------|
|---4---4-------------------4-2h4-|
|---------------------------------|
|---------------------------------|

            Em                          F#             Bm
        /-3-\ /-3-\    /-3-\
|-0-2-3-5-5-5-3-3-3----9-9-9-9-10-9----------10-9--{6-|-----||
|-----------------------------------12p11h12-------}7-|-----||
|--------------------------------------------------{6-|-----||
|--------------------------------------------------.4-|-----||
|-----------------------------------------------------|-----||
|-----------------------------------------------------|-----||



1:
(Bm)                       F#
Por_______________________El________despeina
A                              E
Sube___________________________luna____nadie
G               D
Ell______________Una_________centela
Em                   F#
La___________________Quedar_________noche
Bm                       F#
Alli______________________Y las__________sonar
A                                  E
Y me______________________________puerta______cielo
G                      D
Ella____________________En_____________camino
Em                           F#
Suenan______________________-Y lo____________diciend


Chorus:

G                        D
Welcome_____________ California
       F#                   Bm
Such___________________________ place
G                        D
Welcome_____________ California
       Em                   F#
Such______________________________ place


Solo:

       Bm            F#        A                             E
||----------------------------|-----0---0-------------0--------------------|
||-7p5h7-7----7-8p7-/8p7--8p7-|-2h3---3---3p2---0h2h3---3p2--0h2h3---0-----|
||-----7-7--------------------|------------------------------------2---2p1-|
||----------------------------|--------------------------------------------|
||----------------------------|--------------------------------------------|
||----------------------------|--------------------------------------------|

 G                          D             Em          F#
|---------------------------2-2h3p2-3p2-|-3-5-5-7-7---6-7-7--9--9-||
|---------------------2-3-5-------------|-5-7-7-8-8---7-8-8-11-11-||
|---------------0-2-4-------------------|-------------------------||
|---------0-2-4-------------------------|-------------------------||
|---0-2-4-------------------------------|-------------------------||
|-3-------------------------------------|-------------------------||


2:
Bm                         F#
Ella_____________________ Tenia_____ Mercedes
A                         E
Rodeada________________ Ella________ amigos
G                     D
Cuando________________ Del_________ verano
Em                     F#
Aquel_________________ Y_____________ olvidar
Bm                 F#
Le_________________ Que__________ vino
A                   E
Y___________________Tenido_______alcohol
G                          D
De_____________________ Famosa______ llamando
Em                         F#
Pues___________________ La noche_____ decir


Chorus

[ Tab from: http://www.guitartabs.cc/tabs/g/gipsy_kings/hotel_california_cover_tab.html ]
3:
Bm                    F#
El____________________ Champana__________hielo
A          E
Y__________ somos_________ prisioneros
G                            D
Y_____________________________Hacen_____ esta
Em                    F#
Hasta_________________ Pero_______________ matar
Bm                 F#
Mi________________ Corria__________ puerta
A                                 E
Ver______________________________ donde_________ llegado
G                        D
"Relax"________________ Por____________ recibir
Em                         F#
Puede_____________________ Pero________ partir


Chorus


Solo:
  Bm                   F#
||-{-9-10----9---------9----9--------------------|
||-}12------------12-----12----12-12p11-12-12p11-|
||-{11----11---11--------------------------------|
||-.12-------------------------------------------|
||-----------------------------------------------|
||-----------------------------------------------|

  A              E        G                      D
 [hold]          [hold] 
|-------------5----------|----------------------------------|
|-------5-7-8------------|----------------------------------|
|------------------------|-------2---0-------2--------------|
|-----5-----------2------|-----5---5-------5---5-4---{0-2-0-|
|---7---------------2----|---5-----------5-----------.0-----|
|-5---------------0------|-3--------------------------------|

  Em                      F#       Bm              F#
|--------------------------------|-{2-----------2-{3-2-0-3--2--2\-|
|--------------------------------|-.3-3---2-3-5---}2--------------|
|--------------------------0-----|--------------------------------|
|-4p2p0-4p2p0-4p2p0h2-{4-----4-4-|----------------.5--------------|
|---------------------.5---------|--------------------------------|
|--------------------------------|--------------------------------|

 A                      E                  G           D
|-----------0-0---------0-----------------|----------------2-2----------|
|---0-2-3-3-----3-3-------3-2-0-----------|----------2-3-5-----3-3-(3)\-|
|-2-----------------------------2-(2)p1p0-|---4----4--------------------|
|-----------------------------------------|-5---------------------------|
|-----------------------------------------|-----------------------------|
|-----------------------------------------|-----------------------------|

 Em                              F#
|---------------------------------------------|
|---------------------------------------------|
|-4p2p0h2h4p2p0h2h4p2p0h2h4p2p0---------------|
|----------------------------------5-0------5-|
|--------------------------------------4------|
|---------------------------------------------|

 Bm             F#                   A             E
|-------2-------3--------------------|----------------------------------2-|
|-3-2-3---3-2-3---2-5---2------------|---------------------0-2-3-2-3--5---|
|---------------------3--------------|-------------------2----------------|
|--------------------------4h5p4h5---|-----------0-2-4-5------------------|
|----------------------------------5-|-------4-5--------------------------|
|------------------------------------7\5---5------------------------------|

 G                      D
[simplified.............................]
          /-3-\         /-3-\ /-3-\ /-3-\
|-----------------------------5-5-5-7-7-7-10-9-10-9-|
|-------5-7-7-7-8-8-7-7-8-8-8-----------------------|
|-7-6-7---------------------------------------------|
|---------------------------------------------------|
|---------------------------------------------------|
|---------------------------------------------------|

          Em                             F#
|----9-10-10-9-9----------12-12-12-12-12-12p10p9----10-10-9-9-9-|
|------------------------------------------------12-------------|
|-12-------------12-12-12---------------------------------------|
|---------------------------------------------------------------|
|---------------------------------------------------------------|
|---------------------------------------------------------------|

 Bm                      F#           A         E
|-------0-2----------0-2-2h3p2p0-------------------------------|
|-3-2-3-----3-3--2-3-------------3-2---------------------------|
|--------------------------------------------------------------|
|--------------------------------------------------------------|
|--------------------------------------4p2p1p0---2-0-----------|
|----------------------------------------------------4-5p4-2p0-|

 G                                    D
|-----------------------------9-10-10-10-9-9-------|
|-----------------------10-12----------------------|
|---------------9-11-12----------------------11-11-|
|---------11-12------------------------------------|
|-9h10-12------------------------------------------|
|--------------------------------------------------|

  Em            F#                 Bm                 F#
|----------------------------------|-----------------------9----------|
|----------------------------------7---------7-8-7-8-5/8-7---7-7----7-|
|---------------6-6------------6-6-|-----6-9----------------------9---|
|-9-9---------------8-8-----9------|---9------------------------------|
|-----10-10-7-----------9----------|----------------------------------|
|----------------------------------|----------------------------------|

 A                    E(add9)
                      [hold...]
|-----------3-5-3-3-------------|
|-----3-5-7---------------------|
|-----------------------------1-|
|-------------------------4-4---|
|-----------------------2-------|
|-5-3-----------------0---------|

 G                                 D
             /-3-\
[simplified...............]
|-------------------5--------------5-7-7-9-10-9-9-------|
|---5-7---5-7-8-8-8---8-7-5--8-7-8----------------10-10-|
|-7-----7-----------------------------------------------|
|-------------------------------------------------------|
|-------------------------------------------------------|
|-------------------------------------------------------|

 Em                    F#                                   Bm
|------5---7-7/10-9-12-10-10-9-9-9-10p9---------------------|--------||
|--7-8---8------------------------------12-10---------5-7---|--------||
|---------------------------------------------12p11-------6-7----6-7-||
|-----------------------------------------------------------|--------||
|-----------------------------------------------------------|--------||
|-----------------------------------------------------------|--------||
Comments