Gin Blossoms - Till I Here It From You Chords & Tabs

 

Till I Here It From You Chords & Tabs

Gin Blossoms Chords & Tabs

Version: 1 Type: Tab 0 ratings
1 star 2 stars 3 stars 4 stars 5 stars
comments

Till I Here It From You Tab

   
Till I Here It From You by Gin Blossoms
Standard tuning
Capo on 2nd fret
Intro/Riff

    G				Em

|------3--------2----0-----|----3-------2----0-----|
|--------3-------------3---|------3------------3---|
|----------0-------------0-|--------0------------0-|
|--------------------------|--2--------------------|
|--------------------------|--2--------------------|
|--3-----------------------|-----------------------|


    Bm				D

|--------2--------2--------|--2---2-------2--------|
|-----------3--------3---0-|--3-----3-------3---0--|
|--2----------2--------2---|--2--------2------2----|
|--4-----------------------|--0--------------------|
|--2-----------------------|-----------------------|
|--2-----------------------|-----------------------|

(2 times)


G        Em                         Bm
I didn't ask, you shouldn't have told me
      D
but first I'd laugh right now
G               Em                Bm
I'm sinking in it fast, whatever you sold me
      D
well baby,
                   C                D
 I don't want to take advice from fools
		 C              D
 I just figured everything is cool
         G    G/F#m   Em    D     C
Until I hear it from you (hear it from you)

(insert riff here)
[ Tab from: http://www.guitartabs.cc/tabs/g/gin_blossoms/till_i_here_it_from_you_tab.html ]
G        Em                 Bm 
It gets hard, the memory's faded
 D
who gets what they say
G               Em		       Bm
it's likely they're just jealous and jaded
      D
well maybe

I don't want to take advice from fools
I just figured everything is cool
Until I hear it from you (hear it from you)
Until I hear it from you (hear it from you)

(riff)

D               G
I can't let it get me up
 C                A
or break up my train of thought
 D                  G
as far as I know nothing's wrong
F            C          G
but still I hear it from you

(solo) over   G  Em Bm D

still thinking about not living without it
else I'd look it in
still talking about not stepping around it
well maybe

I don't want to take advice from fools
I just figured everything is cool
Until I hear it from you (hear it from you)
Until I hear it from you (hear it from you)
Until I hear it from you (hear it from you)
                      G    Em     Bm     D
 'til I hear it from you, oh no
                      G    Em     Bm     D
 'til I hear it from you, oh no
                      G    Em     Bm     D
 'til I hear it from you  (won't take advice from fools,thinking 
						everything is cool)
                      G    Em     Bm     D
 'til I hear it from you  (won't take advice from fools, thinking 
						everything is cool)
 'til I hear it from you...
Comments