Gin Blossoms - Till I Hear It From You Chords & Tabs

 

Till I Hear It From You Chords & Tabs

Gin Blossoms Chords & Tabs

Version: 1 Type: Tab 0 ratings
1 star 2 stars 3 stars 4 stars 5 stars
comments

Till I Hear It From You Tab

Till i Hear it From you
gin blossom Rules!!!!!!
habaratboo29@yahoo.com
ghigz69@yahoo.com
add nyo ko friendster
                                                                    
E||------------------|------------------|-----5--------4--2--0-----|
B||------------------|------------------|--------5-----------------|
G||------------------|------------------|-----------2-----------2--|
D||------------------|------------------|--7-----------------------|
A||------------------|------------------|--------------------------|
E||------------------|------------------|--------------------------|


                                                      
-----5--------4--2--0-----|-----4--0-----2--0-----4--|
--------5-----------------|-----------2--------2-----|
-----------2-----------2--|--1-----------------------|
--4-----------------------|--------------------------|
--------------------------|--------------------------|
--------------------------|--------------------------|


                                                      
-----4--0-----2--0-----2--|-----5--0-----4--2--0-----|
-----------0--------0-----|--------------------------|
--------------------------|--2--------2-----------2--|
--2-----------------------|--------------------------|
--------------------------|--------------------------|
--------------------------|--------------------------|


                                                      
-----5--------4--2--0-----|-----4--0-----2--0-----4--|
--------5-----------------|-----------2--------2-----|
-----------2-----------2--|--1-----------------------|
--4-----------------------|--------------------------|
--------------------------|--------------------------|
--------------------------|--------------------------|


                                                                 
-----4--0-----2--0--4--0--|------------------|------------------|
-----------0--------------|------------------|------------------|
--------------------------|------------------|------------------|
--2-----------------------|------------------|------------------|
--------------------------|------------------|------------------|
--------------------------|------------------|------------------|


                                                                            



                                                                
------------------|------------------|----5-----------5--------|
------------------|------------------|-------5-----------5-----|
------------------|------------------|----------6-----------6--|
------------------|------------------|-------------6-----------|
------------------|------------------|-------------------------|
------------------|------------------|-------------------------|


                                                                           
----5-----------4--------|----------------------|----5--5--5--5--5--5--5--|
-------5-----------5-----|----------------------|----5--5--5--5--3--3-----|
----------6-----------6--|--7------7--7----7----|----------------------6--|
-------------------------|--7------7--7----7----|-------------------------|
-------------7-----------|---------5--5----5----|-------------------------|
-------------------------|----------------------|-------------------------|


                                                                            

                                                                           
----5-----------5--------|----5-----------4--------|----------------------|
-------5-----------5-----|-------5-----------5-----|----------------------|
----------6-----------6--|----------6-----------6--|--7------7--7----7----|
-------------6-----------|-------------------------|--7------7--7----7----|
-------------------------|-------------7-----------|---------5--5----5----|
-------------------------|-------------------------|----------------------|

[ Tab from: http://www.guitartabs.cc/tabs/g/gin_blossoms/till_i_hear_it_from_you_tab.html ]
                                                                              
----5--5--5--5--5--5--5--|----5-----------5--------|----5-----------4--------|
----5--5--5--5--3--3-----|-------5-----------5-----|-------5-----------5-----|
----------------------6--|----------6-----------6--|----------6-----------6--|
-------------------------|-------------6-----------|-------------------------|
-------------------------|-------------------------|-------------7-----------|
-------------------------|-------------------------|-------------------------|


                                                                    
----------------------|----5--5--5--5--5--5--5--|------------------|
----------------------|----5--5--5--5--3--3-----|------------------|
--7------7--7----7----|----------------------6--|------------------|
--7------7--7----7----|-------------------------|------------------|
---------5--5----5----|-------------------------|------------------|
----------------------|-------------------------|------------------|


                                                                            
------------------|------------------|------------------|------------------|
-

                                                      
-----5--0-----4--2--0-----|-----5--------4--2--0-----|
--------------------------|--------5-----------------|
--2--------2-----------2--|-----------2-----------2--|
--------------------------|--4-----------------------|
--------------------------|--------------------------|
--------------------------|--------------------------|


                                                                  
-----4--0-----2--0-----4--|--4----------------|------------------|
-----------2--------2-----|--5----------------|------------------|
--1-----------------------|--4----------------|------------------|
--------------------------|--2----------------|------------------|
--------------------------|-------------------|------------------|
--------------------------|-------------------|------------------|


                                                                            
------------------|------------------|------------------|------------------|
------------------|------------------|------------------|------------------|
------------------|------------------|------------------|------------------|
------------------|------------------|------------------|------------------|
------------------|------------------|------------------|------------------|
------------------|------------------|------------------|------------------|


                                                                           
----5-----------5--------|----5-----------4--------|----------------------|
-------5-----------5-----|-------5-----------5-----|----------------------|
----------6-----------6--|----------6-----------6--|--7------7--7----7----|
-------------6-----------|-------------------------|--7------7--7----7----|
-------------------------|-------------7-----------|---------5--5----5----|
-------------------------|-------------------------|----------------------|


                                                                              
----5--5--5--5--5--5--5--|----5-----------5--------|----5-----------4--------|
----5--5--5--5--3--3-----|-------5-----------5-----|-------5-----------5-----|
----------------------6--|----------6-----------6--|----------6-----------6--|
-------------------------|-------------6-----------|-------------------------|
-------------------------|-------------------------|-------------7-----------|
-------------------------|-------------------------|-------------------------|


                                                                           
----------------------|----5--5--5--5--5--5--5--|----5-----------5--------|
----------------------|----5--5--5--5--3--3-----|-------5-----------5-----|
--7------7--7----7----|----------------------6--|----------6-----------6--|
--7------7--7----7----|-------------------------|-------------6-----------|
---------5--5----5----|-------------------------|-------------------------|
----------------------|-------------------------|-------------------------|


                                                                                
----5-----------4--------|----------------------|----5--5--5--5--5--5--5--|----|
-------5-----------5-----|----------------------|----5--5--5--5--3--3-----|----|
----------6-----------6--|--7------7--7----7----|----------------------6--|----|
-------------------------|--7------7--7----7----|-------------------------|----|
-------------7-----------|---------5--5----5----|-------------------------|----|
-------------------------|----------------------|-------------------------|----|
Comments