Gin Blossoms - Hey Jealousy Chords & Tabs

 

Hey Jealousy Chords & Tabs

Gin Blossoms Chords & Tabs

Version: 3 Type: Tab 0 ratings
1 star 2 stars 3 stars 4 stars 5 stars
comments

Hey Jealousy Tab

   
Hey Jealousy by Gin Blossoms
tabbed by justin carlo c
visit me at my friendster account justincarlo88@yahoo.com
yahoo messenger - jco_lead
(damn this song is so nice. Gin Blossoms are freakingly talented.
Play it coz I play it)

INTRO (x2)
Guitar1
(Heavy distorition)
D-E-F#
------------------------------------------------|
------------------------------------------------|
------------------------------------------------|
--7--9--11--9-----------------------------------|
--5--7--9---7-----------------------------------|
------------------------------------------------|

Guitar2 (x2)
(clean)
(plucking)
D-E-F#

--------0-------------0-------------0--------------|
-----3----3-------5-----5--------7-----7-----------|
---2---2----2---4----4----4----6----6-----6--------|
--0-----------2-------------4----------------------|
---------------------------------------------------|
---------------------------------------------------|

---------0----------------------------------------|
------5----5--------------------------------------|
----4---4----4------------------------------------|
--2-----------------------------------------------|
--------------------------------------------------|
--------------------------------------------------|

VERSE
Guitar1 (x2)
(Heavy distorition)
(mute) then normal strumming
D-E-F#
------------------------------------------------|
------------------------------------------------|
------------------------------------------------|
--7--9--11--9-----------------------------------|
--5--7--9---7-----------------------------------|
------------------------------------------------|

Guitar2 (x2)
(clean)
(plucking)
D-E-F#
--------0-------------0-------------0--------------|
-----3----3-------5-----5--------7-----7-----------|
---2---2----2---4----4----4----6----6-----6--------|
--0-----------2-------------4----------------------|
---------------------------------------------------|
---------------------------------------------------|

---------0----------------------------------------|
------5----5--------------------------------------|
----4---4----4------------------------------------|
--2-----------------------------------------------|
--------------------------------------------------|
--------------------------------------------------|

PRE-CHORUS
Guitar1
-----------------------------------------------------|
-----------------------------------------------------|
-----------------------------------------------------|
--14--13--9--11--7--6--7--14--16--14-----------------|
--12--11--7--9---5--4--5--12--14--12-----------------|
-----------------------------------------------------|
[ Tab from: http://www.guitartabs.cc/tabs/g/gin_blossoms/hey_jealousy_tab_ver_3.html ]
Guitar 2
(distortion)
-------------------------------------------------|
-------------------------------------------------|
-------------------------------------------------|
-----7----7--11--9--7----------------------------|
--7--5--7--5--9--7--5----------------------------|
--5-----5----------------------------------------|


CHORUS
Guitar1 (x2)
(distortion)
(one strum only)
D-E-F#
------------------------------------------------|
------------------------------------------------|
------------------------------------------------|
--7--9--11--9-----------------------------------|
--5--7--9---7-----------------------------------|
------------------------------------------------|

Guitar2 (x2)
(clean)
(plucking)
D-E-F#

--------0-------------0-------------0--------------|
-----3----3-------5-----5--------7-----7-----------|
---2---2----2---4----4----4----6----6-----6--------|
--0-----------2-------------4----------------------|
---------------------------------------------------|
---------------------------------------------------|

---------0----------------------------------------|
------5----5--------------------------------------|
----4---4----4------------------------------------|
--2-----------------------------------------------|
--------------------------------------------------|
--------------------------------------------------|

LEAD
(distortion)
h- hammer on
H- hammer off
s- slide
/-bend

-----------------------5-----------------------------|
--5s10-10s9-9s7-5h7H5-5-5h7---5h7-5--5---------------|
------------------------------6---4-6-4--4-----------|
---------------------------------------7--7----------|
-----------------------------------------------------|
-----------------------------------------------------|

---------------------------------------------------------|
----------------------------------10-10-10-10-10s2--12---|
---------------------------9-9h11-----9--9--9-9s11--11---|
-----7-9s11-9H7h9--7-9-9s11------------------------------|
--7-9-----------9----------------------------------------|
---------------------------------------------------------|

----------------------------999H7-----------------------12--|
--12/-10--1010101010101010--777---10-9h10-10-12-10-12s14----|
--11/--9--9-9-9-9-9-9-9-9-----------------------------------|
------------------------------------------------------------|
------------------------------------------------------------|
------------------------------------------------------------|

---12-12-----12---12-12----12-----------------------------|
-14-----14-14---14------14---14/s12-10-9-9h10H9---9-10-9--|
------------------------------------------------9---------|
----------------------------------------------------------|
----------------------------------------------------------|
----------------------------------------------------------|

--12-10-9-7-------------------------------|
-----------10-----------------------------|
------------------------------------------|
------------------------------------------|
------------------------------------------|
------------------------------------------|

tnx to all who have inspired me play...G0D, my family, bea, friends/classmates, NU 107!
support our band freefall/ support our song tightrope!
freefall@yahoo.com (friendster account) \m/
wait for my next tab... everything by lifehouse
Comments