Gin Blossoms - Hey Jealousy Chords & Tabs

 

Hey Jealousy Chords & Tabs

Gin Blossoms Chords & Tabs

Version: 3 Type: Bass Tab 0 ratings
1 star 2 stars 3 stars 4 stars 5 stars
comments

Hey Jealousy Bass Tab

   
artist: gin blossoms
song: hey jealousy
transcribed by: mgruspe@peoplesupport.com
		kramy_xxiii@yshoo.com

intro:

99% accurate&sure bout this.just listen to the record for the proper timing.
please rate it afterwards. thnx...

    h p  
G|-------------------------------------|
D|-9/11\9-0----------------------------|
A|----------55-5555/777-77/99-999\777--|
E|-------------------------------------|

   h p  
G|-------------------------------------|
D|-9/11\9-0----------------------------|
A|----------55-5555/777-77/99-999\777--|
E|-------------------------------------|

   h p  
G|-------------------------------------|
D|-9/11\9-0----------------------------|
A|----------55-5555/777-77/99-999\777--|
E|-------------------------------------|

verse:

G|---------------------------------|
D|---------------------------------|
A|-5-55-5/77-7/9-99\7-77-----------|
E|---------------------------------|

G|---------------------------------|
D|---------------------------------|
A|-5555-7-777/999-9\7-777----------|
E|---------------------------------|

chorus:                              

G|-----------------------------------------------|
D|-------7-----------------7---------------------|
A|-----9---9-54-45577----9---9-54-55/7/99-9775-5-|
E|--55----------------55-------------------------|
...............................................hey jealousy

G|---------------------------------|
D|---------------------------------|
A|-55-55777-7799-99777-9790--------|
E|---------------------------------|

G|---------------------------------|
D|---------------------------------|
A|-55-55777-7799-99777-7\----------|
E|---------------------------------|

verse2:

G|---------------------------------|
D|---------------------------------|
A|-5-55-5/77-7/9-99\7-77-----------|
E|---------------------------------|
[ Tab from: http://www.guitartabs.cc/tabs/g/gin_blossoms/hey_jealousy_btab_ver_3.html ]
G|---------------------------------|
D|---------------------------------|
A|-5555-7-777/999-9\7-777----------|
E|---------------------------------|
 

G|-----------------------------------------------|
D|-------7-----------------7---------------------|
A|-----9---9-54-45577----9---9-54-55/7/99-9775-5-|
E|--55----------------55-------------------------|
...............................................hey jealousy

adlib:

G|-------------------------------------------------------------------|
D|----------------------------------------------------------9/11\9-0-|
A|-55555/77-777/99-999\7779797-55-5555/77-7777-99-99\7777------------|
E|-------------------------------------------------------------------|
							tomorrow we could...
G|------------------------------------------------|
D|-------7-----------------7----------------------|
A|-----9---9-54-45577----9---9-54-55/77/99-9775-5-|
E|--55----------------55--------------------------|
...............................................hey jealousy

G|---------------------------------|
D|---------------------------------|
A|-55-55777-7799-99777-9790--------|
E|---------------------------------|
			   hey jealousyyy

G|--------------------------------------------|
D|--------------------------------------------|
A|-55-5557-7777/99-9999\777-979\-55-5/7777-5--|
E|--------------------------------------------|
............she took my heart

   h p    r~~~~~~~~~~~~  s
G|------------------------------|
D|-9/11\9-0---------------------|
A|-----------------------5\-----|
E|------------------------------|

thats it!

*please dont copy and post this tab as yours. have some respect*
if u have comments or suggestions just email me mgruspe@peoplesupport.com

*wag nio pong kopyahin tpos i-post it0ng tab n i2 n kunwari kyo ang gumawa*
if u have comments or suggestions just email me mgruspe@peoplesupport.com

add me on your friendster- kramy_xxiii@yahoo.com =p


love you so much bhabe c0h!
Comments