Gin Blossoms - Follow You Down Chords & Tabs

 

Follow You Down Chords & Tabs

Gin Blossoms Chords & Tabs

Version: 1 Type: Bass Tab 0 ratings
1 star 2 stars 3 stars 4 stars 5 stars
comments

Follow You Down Bass Tab

Song Title: Follow You Down(corrected version)
Artist: Gin Blossoms
----------------------------------------------

GIN BLOSSOMS - "Follow You Down" - Bass Tab

INTRO:
|---------|---------|---------|---------------|-----------------|
|---------|---------|---------|---------------|-----------------|
|---------|---------|-3-------|---2-0-2-3-2-0-|-5-5-5-5-5-5-5-5-|
|-3-------|-0-------|---------|-3-------------|-----------------|
  1 2 3 4   1 2 3 4   1 2 3 4   1 & 2 & 3 4 &   1 & 2 & 3 & 4 &

|-----------------|-----------------|-------------|---------------|
|-2-2-2-2-2-2-2-2-|-----------------|-------2-3-4-|---------------|
|-----------------|-3-3-3-3-3-3-3-3-|-3-4-5-------|---------------|
|-----------------|-----------------|-------------|-3-3-3-3-3-3-3-|
  1 & 2 & 3 & 4 &   1 & 2 & 3 & 4 &   1 2 & 3 4 &   1 2 & 3 & 4 &

|-----------------|-----------------|-----------------|-------------|
|-----------------|-----------------|-----------2-----|-------------|
|-----------------|-3-3-3-3-3-3-3-3-|-3-3-3-3-3-----3-|-5-5-5-5-5-5-|
|-0-0-0-0-0-0-0-0-|-----------------|-----------------|-------------|
  1 & 2 & 3 & 4 &   1 & 2 & 3 & 4 &   1 & 2 & 3 & 4 &   1 2 3 & 4 &

|-------------|---------|---------|
|-2-2-2-2-2-2/|-10------|---------|
|-------------|---------|-----6-5-|
|-------------|---------|---------|
  1 2 3 & 4 &   1 2 3 4   1 2 3 4

VERSE(1 and 2):							  
|-------------|-------------|-------------|-------------|
|-------------|-2---2-2---2-|-------------|-------2-----|
|-5---5-5---5-|-------------|-3---3-3---3-|-3---3-----3-|
|-------------|-------------|-------------|-------------|
  1 2 & 3 4 &   1 2 & 3 4 &   1 2 & 3 4 &   1 2 3 & 4 &

|-------------|-------------|-------------|-------------|
|-------------|-2---2-2---2-|-------------|-------------|
|-5---5-5---5-|-------------|-3---3-3---3-|-3---3-2-1-0-|
|-------------|-------------|-------------|-------------|
  1 2 & 3 4 &   1 2 & 3 4 &   1 2 & 3 4 &   1 2 & 3 & 4 

|-------------|-------------|-------------|-------------|
|-------------|-2---2-2---2-|-------------|-------------|
|-5---5-5---5-|-------------|-3---3-3---3-|-3---3-6---6-|
|-------------|-------------|-------------|-------------|
  1 2 & 3 4 &   1 2 & 3 4 &   1 2 & 3 4 &   1 2 3 & 4 &

|-------------|-------------|---------|------------|
|-------------|-2---2-2---2-|---------|-----2-3-4--|
|-5---5-5---5-|-------------|-3-2-0-2-|-3-5--------|
|-------------|-------------|---------|------------|
  1 2 & 3 4 &   1 2 & 3 4 &   1 2 3 4   1 2 3 & 4 

CHORUS:
|-------------|-------------|-------------|-------------|
|-------------|-------------|-------------|-------------|
|-------------|-------------|-3---3-3---3-|-3---3-3-2-4-|
|-3---3-3---3-|-0---0-0---0-|-------------|-------------|
  1 2 & 3 4 &   1 2 & 3 4 &   1 2 & 3 4 &   1 2 & 3 4 &
[ Tab from: http://www.guitartabs.cc/tabs/g/gin_blossoms/follow_you_down_btab.html ]
|-------------|-----------------|-------------|-------------|
|-------------|-2-2-2-2-2-2-2-2-|-------------|-------2-3-4-|
|-5---5-5---5-|-----------------|-3---3-3---3-|-3-4-5-------|
|-------------|-----------------|-------------|-------------|
  1 2 & 3 4 &   1 & 2 & 3 & 4 &   1 2 & 3 4 &   1 2 & 3 4 &

|-------------|-------------|-------------|-----------------|
|-------------|-------------|-------------|---------2-------|
|-------------|-------------|-3---3-3---3-|-3-----3-------3-|
|-3---3-3---3-|-0---0-0---0-|-------------|-----------------|
  1 2 & 3 4 &   1 2 & 3 4 &   1 2 & 3 4 &   1 & 2 & 3 & 4 &
								 _______________
								| 1 chorus
|-------------|-----------------|-------------|-----------------|
|-------------|-2-2-2-2-2-2-2-2-|-------------|-----------------|
|-5-5-5-5-5-5-|-----------------|-3-3-3-3-3-3-|-3-3-3-3-3-3-3-3-|
|-------------|-----------------|-------------|-----------------|
  1 2 3 & 4 &   1 & 2 & 3 & 4 &   1 2 3 & 4 &   1 & 2 & 3 & 4 &
  __________
 |2 chorus
|-----------|
|-------2-3-|
|-3-3-5-----|
|-----------|
  1 & 2 3 4

PRE-VERSE:
|-------------|-------------|-------------|---------------|
|-------------|-------------|-------------|---------2-----|
|-------------|-------------|-3-3-3-3-3-3-|-3-3-3-3-----5-|
|-3-3-3-3-3-3-|-0-0-0-0-0-0-|-------------|---------------|
  1 & 2 3 & 4   1 & 2 3 & 4   1 & 2 3 & 4   1 & 2 3 & 4 &

VERSE
CHORUS

SOLO:
|------------------|-----------------|-----------------|
|*-----------------|-2-2-2-2-2-2-2-2-|-----------------|
|*-5-5-5-5-5-5-5-5-|-----------------|-3-3-3-3-3-3-3-3-|
|------------------|-----------------|-----------------|
   1 & 2 & 3 & 4 &   1 & 2 & 3 & 4 &   1 & 2 & 3 & 4 &
  ___________          _________________
 | 1. & 2.            | 3.
|-------------------|---------|---------|
|-----------2------*|---------|---------|
|-3-3-3-3-3------3-*|-3-------|-5-------| 
|-------------------|---------|---------|

LAST VERSE:
|------------------|-----------------|-----------------|
|*-----------------|-2-2-2-2-2-2-2-2-|-----------------|
|*-5-5-5-5-5-5-5-5-|-----------------|-3-3-3-3-3-3-3-3-|
|------------------|-----------------|-----------------|
   1 & 2 & 3 & 4 &   1 & 2 & 3 & 4 &   1 & 2 & 3 & 4 &
  _____________      ______________
 | 1. & 3.          | 2.
|------------------|----------------|-----------------|
|-----------2-----*|---------------*|-----------------|
|-3-3-3-3-3-----5-*|-3-3-3-3-2-1-0-*|-5-5-5-5-5-5-5-5-|
|------------------|----------------|-----------------|
  1 & 2 & 3 & 4 &    1 & 2 & 3 & 4    1 & 2 & 3 & 4 &

|-----------------|---------|-----------|
|-2-2-2-2-2-2-2-2-|---------|-----2-3-4-|
|-----------------|-3-2-0-2-|-3-5-------|
|-----------------|---------|-----------|
  1 & 2 & 3 & 4 &   1 2 3 4   1 2 3 & 4 

CHORUS(FADE OUT)


Submitted by:  Johari Taylor (viking@powerup.com.au)

Comments