Gin Blossoms - Day Job Chords & Tabs

 

Day Job Chords & Tabs

Gin Blossoms Chords & Tabs

Version: 1 Type: Tab 0 ratings
1 star 2 stars 3 stars 4 stars 5 stars
comments

Day Job Tab

   
Day Job- Gin Blossoms
CD: Congratulations I'm Sorry
Tabber: Mitchell (Mitchell_J@hotmail.com)
Tuning: Down a half step (Eb Ab Db Gb Bb Eb)

I can't figure out the intro/lead stuff in the verse. Rhythm plays F#5, that's
all. A few parts are missing, but the song has a TON of little fills, and a neat
one before the solo, is also not here. I think I did well here, but I hope
one of you tabbers can patch up this tab somewhat.

Verse:
eb ---------------------------------------------------------------------------
Bb ---------------------------------------------------------------------------
Gb -----------------------3-3-3-3-3--5-5-5-5-5-5-5-5--------------------------
Db -5~-----5-5-5-5~-----5-3-3-3-3-3--5-5-5-5-5-5-5-5--5-5-5--3/5-3/5-5-5-5-5--
Ab -5~-----5-5-5-5~-----5-1-1-1-1-1--3-3-3-3-3-3-3-3--5-5-5--3/5-3/5-5-5-5-5--
Eb -3~-----3-3-3-3~-----3-----------------------------3-3-3--1/3-1/3-3-3-3-3--

Chorus:
eb ----------------------------------------------------|-------13--------13--
Bb ----------------------------------------------------|-11-13-----10-13-----
Gb -3-3-3-3-3-3---------------5-5-5-5-5-5--------------|---------------------
Db -3-3-3-3-3-3--3-3-3-3-3-3--5-5-5-5-5-5--5-5-5-5-5-5-|---------------------
Ab -1-1-1-1-1-1--3-3-3-3-3-3--3-3-3-3-3-3--5-5-5-5-5-5-|---------------------
Eb --------------1-1-1-1-1-1---------------3-3-3-3-3-3-|---------------------

Solo:
eb -------------------------------------------------------------------
Bb ---6-------------------6------^------^-----------------------------
Gb -7---7-5--------3-5--7---7-5--7-5~---5-5--3h5~---5h3------(drums)--
Db ---------5--5-5--------------------------------------3h5~----------
Ab -------------------------------------------------------------------
Eb -------------------------------------------------------------------
[ Tab from: http://www.guitartabs.cc/tabs/g/gin_blossoms/day_job_tab.html ]
eb --------------------------------6h8-6h8--8/10~---10-10-10-10h8--------
Bb ---6-6--6-6-6-8~----6-6-6-8-8-8--------------------------------11h8~--
Gb -7----------------7---------------------------------------------------
Db ----------------------------------------------------------------------
Ab ----------------------------------------------------------------------
Eb ----------------------------------------------------------------------

eb ------------------------6h8-10-8-6--------------13~---------13--16--15~--
Bb ---------------6-8~-6/8------------8~-----11-13-------10-13-----^^-------
Gb -12-7-10-12--7-----------------------------------------------------------
Db -x--x-x--x---------------------------------------------------------------
Ab -10-5-8--10--------------------------------------------------------------
Eb -------------------------------------------------------------------------

"Day job... day job" part near the end
eb --------------------------------------------------------
Bb --------------------------------------------------------
Gb -------------------------3--5---------------------------
Db -5--5-5--3/5-3/5--5-5-5--3--5---5--5-5--3/5-3/5--5-5-5--
Ab -5--5-5--3/5-3/5--5-5-5--1--3---5--5-5--3/5-3/5--5-5-5--
Eb -3--3-3--1/3-1/3--3-3-3---------3--3-3--1/3-1/3--3-3-3--

End solo:
eb --------------------------------------------------------------10~-------------
Bb -----------^----^--^--^-^&r------------8-6-8--6-8--6-8--6-8~------(big fade)--
Gb ---------3-5~---5--5--5--5--3------5h7----------------------------------------
Db -5-5-5-5----------------------5~----------------------------------------------
Ab ------------------------------------------------------------------------------
Eb ------------------------------------------------------------------------------

Chords: E5:133xxx   F#5: 355xxx   A5: x133xx   B5: x355xx

Tab originally from: http://diehardtabs.tripod.com
Comments