Gilbert Paul - Wtro Chords & Tabs

 

Wtro Chords & Tabs

Gilbert Paul Chords & Tabs

Version: 1 Type: Tab 0 ratings
1 star 2 stars 3 stars 4 stars 5 stars
comments

Wtro Tab

   
#------------------------------------PLEASE NOTE-----------------------------------#
#  This file is the author's own work and represents their interpretation of the   #
#  song. You may only use this file for private study, scholarship, or research.   #
#---------------------------------------------------------------------------------##
Subject: [TAB] Paul Gilbert – W.T.R.O.
Written by: Johann S. Bach
Tab by: Tobias Flock
As performed on „Gilbert Hotel“

h = hammer on
p = pull off
/ = slide up
> = sforzato
 = natural harmonic

PAUL GILBERT – W.T.R.O.


From 00:34 of the original recording
Play every bar 2x
Freetime: ♪ ~ 120



    C                          Dm/C                       G7/B
E|--------------0--------0--|--------------1--------1--|--------------1--------1--|
B|-----------1--------1-----|-----------3--------3-----|-----------3--------3-----|
G|--------0--------0--------|--------2--------2--------|--------0--------0--------|
D|-----2--------------------|-----0--------------------|-----0--------------------|
A|--3-----------------------|--3-----------------------|--2-----------------------|
E|--------------------------|--------------------------|--------------------------|



    C                          C6                         D/C
E|--------------0--------0--|-----------0--5-----0--5--|--------------------------|
B|-----------1--------1-----|--------------------------|--------------3--------3--|
G|--------0--------0--------|--------2--------2--------|-----------2--------2-----|
D|-----2--------------------|-----2--------------------|-----0--4--------4--------|
A|--3-----------------------|--3-----------------------|--3-----------------------|
E|--------------------------|--------------------------|--------------------------|



    G/B                        Cmaj7                      Am7
E|--------------3--------3--|--------------------------|--------------------------|
B|-----------3--------3-----|--------------1--------1--|--------------1--------1--|
G|--------0--------0--------|-----------0--------0-----|-----------0--------0-----|
D|-----0--------------------|--------2--------2--------|--------2--------2--------|
A|--2-----------------------|--2-h3--------------------|-----3--------------------|
E|--------------------------|--------------------------|--5-----------------------|



    D7/A play 1x               D7 play 1x                 G
E|--------------------------|--------------8--------8--|--------------------------|
B|--------------------------|-----------7--------7-----|--------------0--------0--|
G|--------------5--------5--|--------7--------7--------|-----------0--------0-----|
D|-----------4--------4-----|--0--7--------------------|--------0--------0--------|
A|--5-----5--------5--------|--------------------------|-----2--------------------|
E|-----5--------------------|--------------------------|--3-----------------------|
 

    G°7                        F6                         F°7
E|--------------------------|--------------------------|--------------------------|
B|--------------2--------2--|--------------3--------3--|--------------------------|
G|-----------0--------0-----|-----------2--------2-----|--------------4--------4--|
D|--------2--------2--------|--------0--------0--------|-----------3--------3-----|
A|-----1--------------------|-----0--------------------|--------5--------5--------|
E|--3-----------------------|--1-----------------------|--1-/4--------------------|



    C/E                        Fmaj7                      Dm7 play 1x
E|--------------------------|--------------------------|--------------1--------1--|
B|--------------------------|--------------------------|-----------1--------1-----|
G|--------------5--------5--|--------------------------|--------2--------2--------|
D|-----------5--------5-----|--------------3--------3--|--0--3--------------------|
A|--------3--------3--------|--------0-h3-----0-h3-----|--------------------------|
E|--0--3--------------------|--0--1--------------------|--------------------------|


[ Tab from: http://www.guitartabs.cc/tabs/g/gilbert_paul/wtro_tab.html ]
    Dm7 play 1x                G7                         C
E|--------------1--------1--|--------------1--------1--|--------------0--------0--|
B|-----------1--------1-----|-----------0--------0-----|-----------1--------1-----|
G|--------2--------2--------|--------0--------0--------|--------0--------0--------|
D|-----3--------------------|-----0--------------------|-----2--------------------|
A|--5-----------------------|--------------------------|--3-----------------------|
E|--------------------------|--3-----------------------|--------------------------|



    C7                         Fmaj7                      F#°7
E|--------------0--------0--|--------------0--------0--|--------------------------|
B|-----------1--------1-----|-----------1--------1-----|-----------1--4-----1--4--|
G|--------3--------3--------|--------2--------2--------|--------2--------2--------|
D|-----2--------------------|-----3--------------------|--------------------------|
A|--3-----------------------|--------------------------|-----3--------------------|
E|--------------------------|--1-----------------------|--2-----------------------|



    G#°7/b11                   G7                         C/G
E|--------------------------|--------------------------|--------------0--------0--|
B|--------------3--------3--|-----------0--3-----0--3--|-----------1--------1-----|
G|--------4--5-----4--5-----|--------0--------0--------|--------0--------0--------|
D|-----3--------------------|-----3--------------------|-----2--------------------|
A|--------------------------|--------------------------|--------------------------|
E|--4-----------------------|--3-----------------------|--3-----------------------|



    G7/11                      G7                         D#°7/G
E|--------------1--------1--|--------------1--------1--|--------------2--------2--|
B|-----------1--------1-----|-----------0--------0-----|-----------1--------1-----|
G|--------0--------0--------|--------0--------0--------|--------2--------2--------|
D|-----0--------------------|-----0--------------------|-----1--------------------|
A|--------------------------|--------------------------|--------------------------|
E|--3-----------------------|--3-----------------------|--3-----------------------|


 

    C/G                        G7/11                      G7
E|--------------3--------3--|--------------1--------1--|--------------1--------1--|
B|-----------1--------1-----|-----------1--------1-----|-----------0--------0-----|
G|--------0--------0--------|--------0--------0--------|--------0--------0--------|
D|-----2--------------------|-----0--------------------|-----0--------------------|
A|--------------------------|--------------------------|--------------------------|
E|--3-----------------------|--3-----------------------|--3-----------------------|



    C7                         F/C play 1x till end                      slower
E|--------------------------|-----------------1--------|--------------------------|
B|--------------5--------5--|--------------1-----1-----|--1-----------------------|
G|-----------3--------3-----|-----------2-----------2--|-----2-----2--------------|
D|--------5--------5--------|--------3-----------------|--------3-----3--0--3--0--|
A|--3--3--------------------|--3--3--------------------|--------------------------|
E|----->--------------------|----->--------------------|--------------------------|




E|-----------------10-13p10-|-----10-------------------|--------------------------|
B|----------------------|--------------|--------------------------|
G|----------------------|------------------10--|--9h10p9p7~~--------------|
D|--------------------------|----------------------|--------------------------|
A|--3-—2~~------------------|--------------------------|--------------------------|
E|--------------------------|--------------------------|--------------------------|



    C
E|--8-----------------------|
B|--8-----------------------|
G|--9-----------------------|
D|--10----------------------|
A|--10----------------------|
E|--8-----------------------|


Comments