Gigi Dagostino - Ill Fly With You Chords & Tabs

 

Ill Fly With You Chords & Tabs

Gigi Dagostino Chords & Tabs

Version: 1 Type: Tab 0 ratings
1 star 2 stars 3 stars 4 stars 5 stars
comments

Ill Fly With You Tab

The tutudutu part...

--------------------|-----5--4--------4----|--4--5--2--------2----|
------2--------2----|--2-------------------|----------------------|
--------------------|----------------------|----------------------|
--------------------|----------------------|----------------------|
--------------------|----------------------|----------------------|
--------------------|----------------------|----------------------|


                                                                       
--2--0--2----2----2--0--|--2--0----------------|-----5--4--------4----|
------------------------|--------2--------2----|--2-------------------|
------------------------|----------------------|----------------------|
------------------------|----------------------|----------------------|
------------------------|----------------------|----------------------|
------------------------|----------------------|----------------------|



=======================================

The 'rap' part

------5------7------|--9--------------------|--7-----5------------|
--------------------|--------9------10------|---------------------|
--------------------|-----------------------|---------------------|
--------------------|-----------------------|---------------------|
--------------------|-----------------------|---------------------|
--------------------|-----------------------|---------------------|


                                                                     
------10------9------|--10----12------10------|--9----7------9------|
---------------------|------------------------|---------------------|
---------------------|------------------------|---------------------|
---------------------|------------------------|---------------------|
---------------------|------------------------|---------------------|
---------------------|------------------------|---------------------|


                                                                   
--12-----9------------|------10------9------|--7----5------7------|
----------------------|---------------------|---------------------|
----------------------|---------------------|---------------------|
----------------------|---------------------|---------------------|
----------------------|---------------------|---------------------|
----------------------|---------------------|---------------------|


                                                                    
--9--------------------|--7-----5------------|------10------9------|
--------9------10------|---------------------|---------------------|
-----------------------|---------------------|---------------------|
-----------------------|---------------------|---------------------|
-----------------------|---------------------|---------------------|
-----------------------|---------------------|---------------------|


                                                                     
--10----12------10------|--9----7------9----12--|----9--------------|
------------------------|-----------------------|-------------------|
------------------------|-----------------------|-------------------|
------------------------|-----------------------|-------------------|
------------------------|-----------------------|-------------------|
------------------------|-----------------------|-------------------|

[ Tab from: http://www.guitartabs.cc/tabs/g/gigi_dagostino/ill_fly_with_you_tab.html ]
                                                                  
-------10------9------|----------------------|-------------------|
----------------------|--10----10------------|------9------------|
----------------------|----------------------|-------------------|
----------------------|----------------------|-------------------|
----------------------|----------------------|-------------------|
----------------------|----------------------|-------------------|


                                                                  
--------------------|------10------9--------|--------------------|
-------7------------|-------------------10--|------10------------|
--------------------|-----------------------|--------------------|
--------------------|-----------------------|--------------------|
--------------------|-----------------------|--------------------|
--------------------|-----------------------|--------------------|


                                                                  
-------7------------|-------9------------|------10------9----10--|
--------------------|--------------------|-----------------------|
--------------------|--------------------|-----------------------|
--------------------|--------------------|-----------------------|
--------------------|--------------------|-----------------------|
--------------------|--------------------|-----------------------|


                                                                              
------12------------|------------------|------------------|------------------|
--------------------|------------------|------------------|------------------|
--------------------|------------------|------------------|------------------|
--------------------|------------------|------------------|------------------|
--------------------|------------------|------------------|------------------|
--------------------|------------------|------------------|------------------|


---------------------------------------------
The BAS - tab

E||------------------------|--------------------------|
B||------------------------|-----------2-----2-----2--|
G||---------2-----2-----2--|-----2--------------------|
D||------------------------|--------------------------|
A||------0-----0-----0-----|--0-----4-----4-----4-----|
E||------------------------|--------------------------|


                                                                                 
-----------2-----2-----2--|-----2--------------------|--------------------------|
-----2--------------------|-----------3-----3-----3--|-----3--------------------|
--------------------------|--------------------------|-----------2-----2-----2--|
--------4-----4-----4-----|--4-----0-----0-----0-----|--0-----------------------|
--4-----------------------|--------------------------|--------0-----0-----0-----|
--------------------------|--------------------------|--------------------------|


                                                                                 
--------------------------|-----------2-----2-----2--|-----2--------------------|
-----------2-----2-----2--|-----2--------------------|-----------3-----3-----3--|
-----2--------------------|--------------------------|--------------------------|
--------------------------|--------4-----4-----4-----|--4-----0-----0-----0-----|
--0-----4-----4-----4-----|--4-----------------------|--------------------------|
--------------------------|--------------------------|--------------------------|


                                                                                 
--------------------------|--------------------------|-----------2-----2-----2--|
-----3--------------------|-----------2-----2-----2--|-----2--------------------|
-----------2-----2-----2--|-----2--------------------|--------------------------|
--0-----------------------|--------------------------|--------4-----4-----4-----|
--------0-----0-----0-----|--0-----4-----4-----4-----|--4-----------------------|
--------------------------|--------------------------|--------------------------|

Just listen to the real music to get the order of appearince

skit3000@hotmail.com
Comments