Gigi Dagostino - Ill Fly With You Chords & Tabs

 

Ill Fly With You Chords & Tabs

Gigi Dagostino Chords & Tabs

Version: 1 Type: Bass Tab 0 ratings
1 star 2 stars 3 stars 4 stars 5 stars
comments

Ill Fly With You Bass Tab

Gigi D'Agostino: I'll Fly With You

BASS
G-----------------------------------------------------------------|
D---------------------------------9-9-9-9-9-9-9-9-5-5-5-5-5-5-5-5-|
A-5-5-5-5-5-5-5-5-9-9-9-9-9-9-9-9---------------------------------|
E-----------------------------------------------------------------|

This part is played through out the whole song
[ Tab from: http://www.guitartabs.cc/tabs/g/gigi_dagostino/ill_fly_with_you_btab.html ]
INTERLUDE
E-12-17--15--14---12-17--15--14----------------------------|
B--------------------------------15------------------------|
G----------------------------------------------------------|
D----------------------------------------------------------|
A----------------------------------------------------------|
E----------------------------------------------------------|

This is played on top of the bass at certain times during the song
you'll be able to hear when it comes up.
Comments