Ghoti Hook - Tract Boy Chords & Tabs

 

Tract Boy Chords & Tabs

Ghoti Hook Chords & Tabs

Version: 1 Type: Bass Tab 0 ratings
1 star 2 stars 3 stars 4 stars 5 stars
comments

Tract Boy Bass Tab

Tract Boy
Ghoti Hook
Sumo Surprise
Tabbed By:  Stephen Butterfield    Butter99@aol.com


INTRO
G-------------------
D-0-0-0-------0-0-0
A-------0-0-0-------
E--------------------

VERSE
G-------------------
D-0---0---0---------
A---0---0---0------0
E--------------3-3--
[ Tab from: http://www.guitartabs.cc/tabs/g/ghoti_hook/tract_boy_btab.html ]
CHORUS
G--------
D-0------
A-----0-0
E---3----

BRIDGE
G-----------------------------------
D----------0-0-0-0------------------
A-2-2-2-2-------------------0-0-0-0
E-------------------3-3-3-3---------


I only started playing 2 months ago so if anything is wrong just e-mail me.

Comments