Ghoti Hook - Spice Drops Chords & Tabs

 

Spice Drops Chords & Tabs

Ghoti Hook Chords & Tabs

Version: 1 Type: Bass Tab 0 ratings
1 star 2 stars 3 stars 4 stars 5 stars
comments

Spice Drops Bass Tab

Song: SPICE DROPS
Band: GHOTI HOOK
Album: SUMO SUPRISE
tabbed by: DANGEROUS DAVE DISCOUNT



  COME IN WITH DRUMS ON SECOND TIME OF THE SOLO
G:---------------------------------------------------------------
D:---------------------------------------------------------------
A:-3-3-3-1--3-3-3----3-3-3-1--1-1-1-3--3-3-3-1--3-3-3----------1--1-1-1-3-------------------
E:----------------4-----------------------------------4--4-4-4--------


G:---------------------------------------------------------------
D:---------------------------------------------------------------
A:-3-3----3-3-1--3-3----3-3-1--3-3-3----3-3-1--3-3----3-3-1-1-1-1-1-1-1-1-1-------------------
E:-----4-------------4---------------4-------------4-----------------

[ Tab from: http://www.guitartabs.cc/tabs/g/ghoti_hook/spice_drops_btab.html ]
G:------------------------- 
D:--------------------------   4 TIMES
A:-3--------------6---------
E:----4----------------6----
   yeah           yeah yeah     
   (speed up)
G:----------
D:----------    4times without words
 A:-3---3-1--   4times with words
E:---4-------   4times slower with god god part


G:----------------------       4times 
D:----------------------        
A:-6-6-6-8-8-8-8--------
e:---------------6-6-7-8----      


G:---------------------------------------------------------------
D:---------------------------------------------------------------
A:---------------666666-----------33333333-----------666666666--------------------------
E:-888888-444444------- 6666666------------444444444-----------666666666-------------------------------

  after this solo part again and there are some changes in middle
  easy to figure out good luck peace!!!!!!!!!!!!!!!!!!@@@@@@@@@@@@

Comments