Ghoti Hook - Seasons Chords & Tabs

 

Seasons Chords & Tabs

Ghoti Hook Chords & Tabs

Version: 1 Type: Bass Tab 0 ratings
1 star 2 stars 3 stars 4 stars 5 stars
comments

Seasons Bass Tab

seasons
ghoti hook
sumo surprise
tabbed by jared gardner     punkrawkfreak@hotmail.com

intro
G|-----------------------------------|
D|-----------------------------------|
A|-----------------------------------|
E|--3---3---3---(one,two,three,four)-|

verse, 4x
G|---------------------------------|
D|---------------------------------|
A|-3-3-3-3-------------------------|
E|---------3-3-3-3-5-5-5-5-1-1-1-1-|
[ Tab from: http://www.guitartabs.cc/tabs/g/ghoti_hook/seasons_btab.html ]
"seasons changed" part, 2x
G|---------------------------------|
D|---------------------------------|
A|-5-5-5-5-------------------------|
E|---------5-5-5-5-3-3-3-3-3-3-3-3-|

play the verse riff during the guitar solo, end on C

that's it, pretty easy, but still really cool . . . if, by some purely
evil twist of fate, i tabbed it (or typed it) wrong, please do not
hesitate to let me know (where that came from, i have no idea . . .):
punkrawkfreak@hotmail.com
thanx

Comments