Ghoti Hook - Scared Am I Chords & Tabs

 

Scared Am I Chords & Tabs

Ghoti Hook Chords & Tabs

Version: 1 Type: Bass Tab 0 ratings
1 star 2 stars 3 stars 4 stars 5 stars
comments

Scared Am I Bass Tab

scared am i
ghoti hook 
sumo surprise
tabbed by jared gardner     punkrawkfreak@hotmail.com

wait about 30 or 45 seconds during the little guitar intro,
then come in with the rest of the band (that should be kinda
obvious, but anyway . . .)

intro, 2x
G|-----------------------------------------------------
D|-----------------------------------------------------
A|--2--2-2--2-2----------------------------0--0-0--0-0-
E|---------------5--5-5--5-5--0--0-0--0-0--------------

G|-----------------------------------------------------|
D|-----------------------------------------------------|
A|---------------5--5-5--5-5--0--0-0--0-0--7--7-7--7-7-|
E|--2--2-2--2-2----------------------------------------|
[ Tab from: http://www.guitartabs.cc/tabs/g/ghoti_hook/scared_am_i_btab.html ]
verse, 6x
G|-----------------------------------------------------------------|
D|-----------------------------------------------------------------|
A|-----------------5-5-5-5-5-5-5-5-0-0-0-0-0-0-0-0-----------------|
E|-2-2-2-2-2-2-2-2---------------------------------0-0-0-0-0-0-0-0-|

"she starts to cry" part (chorus, i guess), 2x
G|-----------------------------------------------------------------|
D|-----------------------------------------------------------------|
A|-----------------0-0-0-0-0-0-0-0-0-0-0-0-0-0-0-0-0-0-0-0-0-0-0-0-|
E|-2-2-2-2-2-2-2-2-------------------------------------------------|

part after that, 2x
G|-------------------------------------------------|
D|-------------------------------------------------|
A|------0----5-5----------------0----5-5--7--7-7-7-|
E|-2-2------------0--0-0-0-2-2---------------------|

the cool bridge part is the same as the intro
end on F#

really easy, but really cool . . . the best combination 
i'm not quite sure if christian uses a pick or not, if somebody
figures it out, let me know: punkrawkfreak@hotmail.com

Comments