Ghoti Hook - Dry Run Chords & Tabs

 

Dry Run Chords & Tabs

Ghoti Hook Chords & Tabs

Version: 1 Type: Bass Tab 0 ratings
1 star 2 stars 3 stars 4 stars 5 stars
comments

Dry Run Bass Tab

Dry Run
Ghoti Hook
Sumo Surprise
Tabbed By:  Stephen Butterfield     Butter99@aol.com


INTRO and VERSE
G--------------------------
D--------------0-0-2-3-2-0
A-3-3---0-0-4-------------
E-----3--------------------
[ Tab from: http://www.guitartabs.cc/tabs/g/ghoti_hook/dry_run_btab.html ]
CHORUS
G-----------------
D-----------------
A-3-3-0-0-----3-3
E----------3-3----

BRIDGE
G--------------------------------------
D----------------------0-0-0-0-2-3-2-0
A-3-3-3-3---0-0-0-0-4-----------------
E----------3---------------------------


Comments