Ghost Of The Robot - Goodbye Chords & Tabs

 

Goodbye Chords & Tabs

Ghost Of The Robot Chords & Tabs

Version: 1 Type: Tab 0 ratings
1 star 2 stars 3 stars 4 stars 5 stars
comments

Goodbye Tab



artist: ghost of the robot
song: goodbye (no druming version)
tab by :darryl hanlon

  key:
  X  : dead note


INTRO
||---------------------------------------------------------------------------||
||---------------------------------------------------------------------------||
||------------5--5-5----7--7-7---------------------5--5-----5--5-5-----------||
||----7--7----5--5-5----7--7-7----7--X-X---7--7----5--5-----5--5-5----7--X-X-||
||----7--7----3--3-3----5--5-5----7--X-X---7--7----3--3-----7--7-7----7--X-X-||
||----5--5------------------------5--X-X---5--5-----------------------5--X-X-||

VERSE
||-------------------------------------------------------------------------||
||-------------------------------------------------------------------------||
||------------5--5-5----7--7-7-----------------5--5-5----5--5-5------------||
||----7--7----5--5-5----7--7-7----7----7--7----5--5-5----5--5-5----7--X-X--||
||----7--7----3--3-3----5--5-5----7----7--7----3--3-3----7--7-7----7--X-X--||
||----5--5------------------------5----5--5------------------------5--X-X--||


||-------------------------------------------------------------------------||
||-------------------------------------------------------------------------||
||------------5--5-5----7--7-7-----------------5--5-5----5--5-5------------||
||----7--7----5--5-5----7--7-7----7----7--7----5--5-5----5--5-5----7--X-X--||
||----7--7----3--3-3----5--5-5----7----7--7----3--3-3----7--7-7----7--X-X--||
||----5--5------------------------5----5--5------------------------5--X-X--||


||--------------------------------------------------------------||
||--------------------------------------------------------------||
||----7--7-7---7--7-7----5--5-5---5--5-5----6--6-6-6--6-6--6----||
||----7--7-7---7--7-7----5--5-5---5--5-5----7--7-7-7--7-7--7----||
||----5--5-5---5--5-5----3--3-3---3--3-3----7--7-7-7--7-7--7----||
||------------------------------------------5--5-5-5--5-5--5----||


||-------------------------------------------------------------------------||
||-------------------------------------------------------------------------||
||------------5--5-5----7--7-7-----------------5--5-5----5--5-5------------||
||----7--7----5--5-5----7--7-7----7----7--7----5--5-5----5--5-5----7--X-X--||
||----7--7----3--3-3----5--5-5----7----7--7----3--3-3----7--7-7----7--X-X--||
||----5--5------------------------5----5--5------------------------5--X-X--||


||-------------------------------------------------------------------------||
||-------------------------------------------------------------------------||
||------------5--5-5----7--7-7-----------------5--5-5----5--5-5------------||
||----7--7----5--5-5----7--7-7----7----7--7----5--5-5----5--5-5----7--X-X--||
||----7--7----3--3-3----5--5-5----7----7--7----3--3-3----7--7-7----7--X-X--||
||----5--5------------------------5----5--5------------------------5--X-X--||

[ Tab from: http://www.guitartabs.cc/tabs/g/ghost_of_the_robot/goodbye_tab.html ]
CHOURUS
||---------------------------------------------------------------||
||---------------------------------------------------------------||
||----7--7-7---7--7-7----5--5-5---5--5-5----6--6-6-6--6--6-6-6---||
||----7--7-7---7--7-7----5--5-5---5--5-5----7--7-7-7--7--7-7-7---||
||----5--5-5---5--5-5----3--3-3---3--3-3----7--7-7-7--7--7-7-7---||
||------------------------------------------5--5-5-5--5--5-5-5---||

VERSE
||-------------------------------------------------------------------------||
||-------------------------------------------------------------------------||
||------------5--5-5----7--7-7-----------------5--5-5----5--5-5------------||
||----7--7----5--5-5----7--7-7----7----7--7----5--5-5----5--5-5----7--X-X--||
||----7--7----3--3-3----5--5-5----7----7--7----3--3-3----7--7-7----7--X-X--||
||----5--5------------------------5----5--5------------------------5--X-X--||


||-------------------------------------------------------------------------||
||-------------------------------------------------------------------------||
||------------5--5-5----7--7-7-----------------5--5-5----5--5-5------------||
||----7--7----5--5-5----7--7-7----7----7--7----5--5-5----5--5-5----7--X-X--||
||----7--7----3--3-3----5--5-5----7----7--7----3--3-3----7--7-7----7--X-X--||
||----5--5------------------------5----5--5------------------------5--X-X--||

CHOURUS
||---------------------------------------------------------------||
||---------------------------------------------------------------||
||----7--7-7---7--7-7----5--5-5---5--5-5----6--6-6-6--6--6--6----||
||----7--7-7---7--7-7----5--5-5---5--5-5----7--7-7-7--7--7--7----||
||----5--5-5---5--5-5----3--3-3---3--3-3----7--7-7-7--7--7--7----||
||------------------------------------------5--5-5-5--5--5--5----||


||---------------------------------------------------------------||
||---------------------------------------------------------------||
||----7--7-7---7--7-7----5--5-5---5--5-5----6--6-6-6--6--6--6----||
||----7--7-7---7--7-7----5--5-5---5--5-5----7--7-7-7--7--7--7----||
||----5--5-5---5--5-5----3--3-3---3--3-3----7--7-7-7--7--7--7----||
||------------------------------------------5--5-5-5--5--5--5----||

OUTRO
||---------------------------------------------------------------------------||
||---------------------------------------------------------------------------||
||------------5--5-5----7--7-7---------------------5--5-----5--5-5-----------||
||----7--7----5--5-5----7--7-7----7--X-X---7--7----5--5-----5--5-5----7--X-X-||
||----7--7----3--3-3----5--5-5----7--X-X---7--7----3--3-----7--7-7----7--X-X-||
||----5--5------------------------5--X-X---5--5-----------------------5--X-X-||


||---------------------------------------------------------------------------||
||---------------------------------------------------------------------------||
||------------5--5-5----7--7-7---------------------5--5-----5--5-5-----------||
||----7--7----5--5-5----7--7-7----7--X-X---7--7----5--5-----5--5-5----7--X-X-||
||----7--7----3--3-3----5--5-5----7--X-X---7--7----3--3-----7--7-7----7--X-X-||
||----5--5------------------------5--X-X---5--5-----------------------5--X-X-||

 thats the whole song
 have fun :)

Comments