Ghost Of The Robot - Good Night Sweet Girl Chords & Tabs

 

Good Night Sweet Girl Chords & Tabs

Ghost Of The Robot Chords & Tabs

Version: 1 Type: Tab 0 ratings
1 star 2 stars 3 stars 4 stars 5 stars
comments

Good Night Sweet Girl Tab

   
----------------------------------------------------------------------------
			    Good Night Sweet Girl - Ghost Of The Robot
---------------------------------------------------------------------------
Tabbed by: Michelle Cheung
Email: giddy_michelle@hotmail.com]
This is not the full version because I still haven't been able to figure out the bits in 
the chords and after the intro. This is my first tab so just email me if there are mistakes.

Tuning: Standard

e|--------2-----------2-----------2------------3------------2------------2---|
B|------3---3-------3---3-------3---3--------3---3--------3---3--------3---3-|
3|----4-------4---4-------4---4-------4----4-------4----4-------4----4-------|
D|---------------------------------------------------------------------------|
A|---2---------2------------0------------0-----------------------------------|
E|----------------------------------------------------3------------3---------|
[ Tab from: http://www.guitartabs.cc/tabs/g/ghost_of_the_robot/good_night_sweet_girl_tab.html ]
e|-----------2--------------0--------2-------------------------------------|
B|---------3---3----------3---3----3---3-----------------------------------|
G|-------4-------4-----4--------4------------I'm not sure how this bit goes|
D|-------------------------------------------------------------------------|
A|--0-2-------------2------------------------------------------------------|
E|-------------------------------------------------------------------------|

e|-------------------------------------------------------------------------|
B|-------------------------------------------------------------------------|
G|-------------------------------------------------------------------------|
D|-9999-7777-5555-3-4444---9-----7-----5-----3-4---------------------------|
A|-9999-7777-5555-3-4444---9-x12-7-x12-5-x12-3-4-x12--repeat as many times-|
E|-7777-5555-3333-1-2222---7-----5-----3-----1-2------as needed------------|

e|-------------------------------------------------------------------------|
B|-------------------------------------------------------------------------|
G|-------------9-7---------------------------------------------------------|
D|-9-----5-----9-7-x12-77-77------repeat as many times as needed-----------|
A|-9-x12-5-x12-7-5-----77-77-----------------------------------------------|
E|-7-----3-------------55-55-----------------------------------------------|

Intro Again
Its not finished yet, i'm in a tech lesson... 18/5/04 14:51
| /  slide up
| \  slide down
| h  hammer-on
| p  pull-off
| ~  vibrato
| +  harmonic
| x  Mute note
============================================================================
Comments