Ghost Of The Robot - Call 911 Chords & Tabs

 

Call 911 Chords & Tabs

Ghost Of The Robot Chords & Tabs

Version: 1 Type: Tab 0 ratings
1 star 2 stars 3 stars 4 stars 5 stars
comments

Call 911 Tab

Ghost of the Robot

Call 911 - (Possibly the best song on the album)

Intro
--x-x-xx--x-x-xx-----------------------------------------------------|
--x-x-xx--x-x-xx-----------------------------------------------------|
--x-x-xx--x-x-xx-----------------------------------------------------|
--x-x-xx--x-x-xx-----------------------------------------------------|
--x-x-xx--x-x-xx-----------------------------------------------------|
--x-x-xx--x-x-xx-----------------------------------------------------|


  X57765   x57765        x46654 x46644

--5-5-xxx--6-6-6-6-6-xx--5-5-5--5-5-5-5-xx---------------------------|
--6-6-xxx--7-7-7-7-7-xx--6-6-6--5-5-5-5-xx---------------------------|
--7-7-xxx--8-8-8-8-8-xx--7-7-7--7-7-7-7-xx---------------------------|
--7-7-x----8-8-8-8-8-xx--7-7-7--7-7-7-7-xx---------------------------|
--5-5-x----6-6-6-6-6-xx--5-5-5--5-5-5-5-xx---------------------------|
--x-x-x----x-x-x-x-x-xx--x-x-x--x-x-x-x-xx---------------------------|


  X57765   x68876        x79987 x8101098

--5-5-xxx--6-6-6-6-6-xx--7-7-7--8-8-8-8-xx---------------------------|
--6-6-xxx--7-7-7-7-7-xx--8-8-8--9-9-9-9-xx---------------------------|
--7-7-xxx--8-8-8-8-8-xx--9-9-9--10101010xx---------------------------|
--7-7-x----8-8-8-8-8-xx--9-9-9--10101010xx---------------------------|
--5-5-x----6-6-6-6-6-xx--7-7-7--8-8-8-8-xx---------------------------|
--x-x-x----x-x-x-x-x-xx--x-x-x--x-x-x-x-xx---------------------------|


  X57765   x68876        x57765 x57755
--5-5-xxx--6-6-6-6-6-xx--5-5-5--5-5-5-5-xx---------------------------|
--6-6-xxx--7-7-7-7-7-xx--6-6-6--5-5-5-5-xx---------------------------|
--7-7-xxx--8-8-8-8-8-xx--7-7-7--7-7-7-7-xx---------------------------|
--7-7-x----8-8-8-8-8-xx--7-7-7--7-7-7-7-xx---------------------------|
--5-5-x----6-6-6-6-6-xx--5-5-5--5-5-5-5-xx---------------------------|
--x-x-x----x-x-x-x-x-xx--x-x-x--x-x-x-x-xx---------------------------|


  X46654   x57765        x67786 x8101098

--5-5-xxx--6-6-6-6-6-xx--7-7-7--9-9-9-9-xx---------------------------|
--6-6-xxx--7-7-7-7-7-xx--8-8-8--10101010xx---------------------------|
--7-7-xxx--8-8-8-8-8-xx--9-9-9--11111111xx---------------------------|
--7-7-x----8-8-8-8-8-xx--9-9-9--11111111xx---------------------------|
--5-5-x----6-6-6-6-6-xx--7-7-7--9-9-9-9-xx---------------------------|
--x-x-x----x-x-x-x-x-xx--x-x-x--x-x-x-x-xx---------------------------|


---------------------------------------------------------------------|
------4------5-----4-----3------4------5------4------3---------------|
----5------6-----5-----4------5-5----6-6----5-5----4-4---------------|
--5------6-----5-----4------5------6------5------4-------------------|
---------------------------------------------------------------------|
---------------------------------------------------------------------|
'Shuffle' type rhythm

---------------------------------------------5-5-5-5-5-5--5-5-x------|
-----4------5------4------5------4------5----6-6-6-6-6-6--6-5-x------|
----5-5----6-6----5-5----4-4----5-5----6-6---7-7-7-7-7-7--7-7-x------|
---5---5--6---6--5---5--4---4--5---5--6---6--7-7-7-7-7-7--7-7-7------|
---------------------------------------------5-5-5-5-5-5--5-5-7------|
---------------------------------------------x-x-x-x-x-x--x-x-5------|

---------------------------------------------------------------------|
---------------------------------------------------------------------|
-------------x------------x------------xxx-----------xxx-------------|
--5--5-5-5-5-5-4--4-4-4-4-5--555-555-55555-444-444-44333-------------|
--x--x-x-x-x-3-x--x-x-x-x-3--xxx-xxx-xx333-xxx-xxx-xx555-------------|
--3--3-3-3-3---2--2-2-2-2----333-333-33000-222-222-22000-------------|

(Palm muted)
---------------------------------------------------------------------|
---------------------------------------------------------------------|
------------xxx------------xxx---------------------------------------|
--555-555-55555--444-444-44555--play-4-times-------------------------|
--xxx-xxx-xx333--xxx-xxx-xx333---------------------------------------|
--333-333-33-----222-222-22------------------------------------------|
[ Tab from: http://www.guitartabs.cc/tabs/g/ghost_of_the_robot/call_911_tab.html ]
|-------------------------------------------------------------------|
|-------------------------------------------------------------------|
|--4--4-4-4-4--x--x-x-x-x--5--5-5-5-5--x--x-x-x-x-------------------|
|--x--x-x-x-x--3--3-3-3-3--x--x-x-x-x--4--4-4-4-4--(repeated)-------|
|--2--2-2-2-2--x--x-x-x-x--3--3-3-3-3--x--x-x-x-x-------------------|
|--x--x-x-x-x--1--1-1-1-1--x--x-x-x-x--2--2-2-2-2-------------------|
|  (Guitar 1)                                                       | |                  
                                                | |                                     
                             |
|-------------------------------------------------------------------|
|--3-3/5-3-----------/12-10-12-12~-10---3-3/5-3---------------------|
|-----------5-3-2--------------------------------5-3-2-2-1-2-4-5----|
|-------------------------------------------------------------------|
|-------------------------------------------------------------------|
|-------------------------------------------------------------------|
   (Guitar 2)

---------------------------------------------------------------------|
---------------------------------------------------------------------|
--5-4-5--7-6-7--9-8-9--11-10-11--13\---------------------------------|
---------------------------------------------------------------------|
---------------------------------------------------------------------|
---------------------------------------------------------------------|


---------------------------------------------------------------------|
---------------------------------------------------------------------|
---------------------------------------------------------------------|
-\5--5-55-55-5/7-7/9-99-9-99-9-9/11-11-12-12-1212-12-1212\-----------|
-\x--x-xx-xx-x/x-x/x-xx-x-xx-x-x/x--x--x--x--x-x--x--x-x-------------|
-\3--3-33-33-3/5-5/7-77-7-77-7-7/9--9--10-10-1010-10-1010\-----------|


---------------------------------------------------------------------|
---------------------------------------------------------------------|
---------------------------------------------------------------------|
--5-5/9-9-99-99-12-12-1212-9-7-4-------------------------------------|
--x-x/x-x-xx-xx-x--x--x-x--x-x-x-------------------------------------|
--3-3/7-7-77-77-10-10-1010-7-5-2-------------------------------------|


---------------------------------------------------------------------|
---------------------------------------------------------------------|
--5.-5/7---7/9.--9/11.--11.---5.-5/7.--7/9.--9/11--11.---------------|
--x--x-x---x-x---x-x----x-----x--x-x---x-x---x-x---x-----------------|
--3.-3/5.--5/7.--7/9.---9.----3.-3/5.--5/7.--7/9.--9.----------------|
---------------------------------------------------------------------|


---------------------------------------------------------------------|
---------------------------------------------------------------------|
--5.-5/7---7/9.--9/11.--11.---5.-5/7.--7/9.--9/11--11.---------------|
--x--x-x---x-x---x-x----x-----x--x-x---x-x---x-x---x-----------------|
--3.-3/5.--5/7.--7/9.---9.----3.-3/5.--5/7.--7/9.--9.----------------|
---------------------------------------------------------------------|


---------------------------------------------------------------------|
---------------------------------------------------------------------|
--5\4/5--7\6/7--9\8/9--11\10/11---5\4/5--7\6/7--9\8/9--11\10/11------|
--x-x-x--x-x-x--x-x-x--x--x--x----x-x-x--x-x-x--x-x-x--x--x--x-------|
--3\2/3--5\4/5--7\6/7--9-\8-/9----3\2/3--5\4/5--7\6/7--9-\8-/9-------|
---------------------------------------------------------------------|

|-------------------------------------------------------------------|
|-------------------------------------------------------------------|
|------------4-4-4-x-x-----------4-4-4-4-x--------------------------|
|--3-3-3-x-x-x-x-x-x-x-4-4-4-x-x-x-x-x-x-x---(repeated)-------------|
|--x-x-x-x-x-2-2-2-x-x-x-x-x-x-x-2-2-2-2-x--------------------------|
|--1-1-1-x-x-----------2-2-2-x-x------------------------------------|
|  (Guitar 1)                                                       |
|                                                                   |
|-------------------------------------------------------------------|
|-------------------------------------------------------------------|
|----9-11------9-11-11''----9-11------9-11-12-14-----99-1111--------|
|--9------9--9------------------9-----------------99---------99-----|
|------------------------10--------10-------------------------------|
|-------------------------------------------------------------------|
   (Guitar 2)

---------------------------------------------------------------------|
---------------------------------------------------------------------|
----99-1111-11''-----99-11--------99-11-12-14-----99-1111-------9----|
-99------------------------99------------------99---------99-99------|
----------------1010---------1010------------------------------------|
---------------------------------------------------------------------|

Then it just finishes with the bass.

X  - deadened string
/  - slide up
\  - slide down
.  - stop
'  - bend
'' - bend and return
~  - vibrato

By Celia

(I'm not positive about some bits, so if you have any corrections, please feel free).
Comments