Ghinzu - Do You Read Me Chords & Tabs

 

Do You Read Me Chords & Tabs

Ghinzu Chords & Tabs

Version: 1 Type: Bass Tab 0 ratings
1 star 2 stars 3 stars 4 stars 5 stars
comments

Do You Read Me Bass Tab

Ghinzu - Do you read me

I'm not a bassist but that's what I could figure out. There are some
losses but that's a good start.

Tune 1/2 down

BASS

VERSES
G-------------------------------------------------------------------
D-------------------------------------------------------------------
A-----5--3--5-------5--3-3-5-------8--7--8------8--7-7-8------------
E-3-3----------3-3-------------6-6----------6-6---------------------

G-------------------------------------------------------------------
D-------------------------------------------------------------------
A-------12--10--12--------12--10-10-12------------------------------
E-10-10-------------10-10-------------------------------------------

[ Tab from: http://www.guitartabs.cc/tabs/g/ghinzu/do_you_read_me_btab.html ]
CHORUS
G-------------------------------------------------------------------
D-------------------------------------------------------------------
A------5-5---5-6--6--6--6---------5-5---5-6--6--6--6----------------
E-3--6-----6-----------------3--6-----6-----------------6--6--6--6--

G-------------------------------------------------------------------
D-------------------------------------------------------------------
A-------------5--5--5--5--------------------------------------------
E-6--6--6--6--------------------------------------------------------

BRIDGE
G-------------------------------------------------------------------
D-------------------------------------------------------------------
A-----------------5-5-5-5-5-5-5-5-----------------5-5-5-5-5-5-5-5---
E-6-6-6-6-6-6-6-6-----------------3-3-3-3-3-3-3-3-------------------

Any remarks, comments or talking about this great band,  feel free :
plugin79@hotmail.com
Comments