Gg Allin - Tough Fucking Shit Chords & Tabs

 

Tough Fucking Shit Chords & Tabs

Gg Allin Chords & Tabs

Version: 1 Type: Tab 0 ratings
1 star 2 stars 3 stars 4 stars 5 stars
comments

Tough Fucking Shit Tab

This tab took me and my punk buddies a whole night to decode cause no one else in this 
had the guts to decode this song...so here it is...

Intro:

----------------------------------------------|  2x
----------------------------------------------|
---6---6---4---3----4---6---4--3--------------|
-----------------------------------3----4-----|
----------------------------------------------|
----------------------------------------------|

now you do a slide with your pick on the bottom two strings

----------------------------------------------|
----------------------------------------------|
----------------------------------------------|
----------------------------------------------|
xxxxxxxxxxxxxxxxxxxxxxxxxxxxxxxxxxxxxxxxxxxxxx
xxxxxxxxxxxxxxxxxxxxxxxxxxxxxxxxxxxxxxxxxxxxxx

and here are the power chords during the verses(listen to the song for rythm)
[ Tab from: http://www.guitartabs.cc/tabs/g/gg_allin/tough_fucking_shit_tab.html ]
----------------------------------------------|
----------------------------------------------|
----------------------------------------------|
4--4--4--444-----4-4-4--4-----4----4--4-------|
4--4--4--444-----4-4-4--4-----4----4--4-------|
2--2--2--222-----2-2-2--2-----2----2--2-------|

Then before the intro repete go up to O-5

----------------------------------------------|
----------------------------------------------|
----------------------------------------------|
----------------------------------------------|
7--7--7--777-----7-7-7--7-----7----7--7-------|
7--7--7--777-----7-7-7--7-----7----7--7-------|
5--5--5--555-----5-5-5--5-----5----5--5-------|

Then repete the intro an slide again

----------------------------------------------|  2x
----------------------------------------------|
---6---6---4---3----4---6---4--3--------------|
-----------------------------------3----4-----|
----------------------------------------------|
----------------------------------------------|

----------------------------------------------|
----------------------------------------------|
----------------------------------------------|
----------------------------------------------|
xxxxxxxxxxxxxxxxxxxxxxxxxxxxxxxxxxxxxxxxxxxxxx|
xxxxxxxxxxxxxxxxxxxxxxxxxxxxxxxxxxxxxxxxxxxxxx|

There you have it followers of the lord GG Allin... Tough fucking shit-pyrofreak
Comments