Gg Allin - Terror In America Chords & Tabs

 

Terror In America Chords & Tabs

Gg Allin Chords & Tabs

Version: 1 Type: Tab 0 ratings
1 star 2 stars 3 stars 4 stars 5 stars
comments

Terror In America Tab

TERROR IN AMERICA, by GG Allin & the Murder Junkies.
From the album "Brutality & Bloodshed For All"
Tabbed by Jake Strange. (aka, Scumfuc)
Email:  jakestrange@chaosmagic.com

Intro:
e|------------------------------------------------||-------------------|
B|------------------------------------------------||-------------------|
G|---------(777)----------------------------------||-------------------|
D|----------77777----------7777777---------77777--||--9--9--9--9--9--9-|
A|--777777--00000--777777--0000000--777777-00000--||--9--9--9--9--9--9-|
E|--000000---------000000-----------000000--------||--7--7--7--7--7--7-|

1st verse:
e|-------------------------------------|
B|-------------------------------------|   Bass plays an "E" during
G|--999999999999999---xxxxxxxxxxxxxxxx-|   the scratches.
D|--999999999999999---xxxxxxxxxxxxxxxx-|
A|--777777777777777---xxxxxxxxxxxxxxxx-|
E|--------------------xxxxxxxxxxxxxxx--|
[ Tab from: http://www.guitartabs.cc/tabs/g/gg_allin/terror_in_america_tab.html ]
Chorus:
e|------------------------------------|
B|------------------------------------|
G|-----9-----9-----9-----9-----9------|   Just play this part really
D|--9--9--9--9--9--9--9--9--9--9------|   fast a bunch of times, I'm not
A|--9--7--9--7--9--7--9--7--9--7------|   sure how many.
E|--7-----7-----7-----7-----7---------|

2nd verse:
e|---------------------------------|
B|---------------------------------|   Bass plays an "A" during
G|---------------------------------|   the pause.
D|--7777777777777777777------------|
A|--0000000000000000000--(pause)---|
E|---------------------------------|

3rd verse:
e|------------------------------||-----------------------------------|
B|------------------------------||-----------------------------------|
G|--777777777777777777777-------||--99999999999999--xxxxxxxxxxxxxxx--|
D|--777777777777777777777(pause)||--99999999999999--xxxxxxxxxxxxxxx--|
A|--000000000000000000000-------||--77777777777777--xxxxxxxxxxxxxxxx-|
E|------------------------------||------------------xxxxxxxxxxxxxx---|
       Bass plays an "D(?)" for the pause in the 1st measure and
       an "E" during the scratches in the 2nd measure. PLay each
       measure 4x.
For the 4th verse, just play the 1st measure of the "intro."

End on this:
e|----------------------------------|
B|----------------------------------|
G|-----------2----------2--5--7-----|
D|---2---5---2----------2--5--7-----|
A|---2---5---0----------0--3--5-----|
E|---0---3--------------------------|
Comments