Gg Allin - Sluts In The City Chords & Tabs

 

Sluts In The City Chords & Tabs

Gg Allin Chords & Tabs

Version: 2 Type: Tab 0 ratings
1 star 2 stars 3 stars 4 stars 5 stars
comments

Sluts In The City Tab

SLUTS IN THE CITY, by GG Allin & the Cedar Street Sluts.
Tabbed by Jake Strange (Scumfuc)
Email:  jakestrange@chaosmagic.com

Intro: "So we're gonna die young...."
e|-----------------------------------------------------|
B|-----------------------------------------------------|
G|--------3-3-3-3----4-4--4-4-4----------66666666666---|
D|--4-4-4-3-3-3-3----4-4--4-4-4----------66666666666---|
A|--4-4-4-1-1-1-1----2-2--2-2-2----------44444444444---|
E|--2-2-2----------------------------------------------|

"All the sluts in the city walk like..."             "I'm a bitch...."
e|-----------------------------------------||------------------------|
B|-----------------------------------------||------------------------|
G|-----------4-----------4-------------4---||------------------------|
D|--4--------4-----4-----4-------4-----4---||---444444444444444444---|
A|--4--------2-----4-----2-------4-----2---||---444444444444444444---|
E|--2--------------2-------------2---------||---222222222222222222---|
[ Tab from: http://www.guitartabs.cc/tabs/g/gg_allin/sluts_in_the_city_tab_ver_2.html ]
Play this for all verses, except the last one. "Uptown, downtown, all..."
e|------------------------------------------------------|-------------------
B|------------------------------------------------------|-------------------
G|----------444444--666666--------------4444444--666666-|-------444444------
D|--444444--444444--666666---444444444--4444444--666666-|-444444444444444444
A|--444444--222222--444444---444444444--2222222--444444-|-444444222222444444
E|--222222-------------------222222222------------------|-222222------222222

Repeat 1st measure in the above & end that riff like this:
e|------------------------------------------------------------|
B|------------------------------------------------------------|
G|----------444444--666666----4--(4)---666666---4-----6666666-|
D|--444444--444444--666666----4--(4)---666666---4-----6666666-|
A|--444444--222222--444444----2--(2)---444444---2-----4444444-|
E|--222222----------------------------------------------------|

Then it goes..."All the sluts in the..."
e|----------------------------|
B|----------------------------|
G|----------4444444--6666666--|  (6x) (also play this during the solo)
D|--4444444-4444444--6666666--|
A|--4444444-2222222--4444444--|
E|--2222222-------------------|

Solo:
e|-----------------------------------|
B|-----------------------------------|
G|--11--11-11-11---------------------|
D|---------------9--9-9--11-11---11--|
A|-----------------------------------|
E|-----------------------------------|

OK, that's about it...except during that last verse, the "verse"
riff is played slightly different- all you really do is play the
riff without repeating the 1st measure.
This isn't the best TAB, but I suggest you play it along w/ the
CD to get it all to make sense...& make sure your guitar is in
standard tuning!!! Believe it or not, GG's songs are in Standard!!!!
Comments