Gg Allin - Live Fast Die Fast Chords & Tabs

 

Live Fast Die Fast Chords & Tabs

Gg Allin Chords & Tabs

Version: 1 Type: Tab 0 ratings
1 star 2 stars 3 stars 4 stars 5 stars
comments

Live Fast Die Fast Tab

LIVE FAST, DIE FAST, by GG Allin
Tabbed by Jake Strange.
E-mail: jakestrange@chaosmagic.com

Intro/verse:
e|-------------------------------------||
B|-------------------------------------||
G|--------9---555------------9---5-----||
D|---77---9---555----5--77---9---5--5--||
A|---77---7---333----5--77---7---3--5--||
E|---55--------------3--55----------3--||
[ Tab from: http://www.guitartabs.cc/tabs/g/gg_allin/live_fast_die_fast_tab.html ]
Chorus:
e|-----------------------------------------------||
B|-----------------------------------------------||
G|--77--5-77--5-77--5-77---7-5-4-22----22----22--||
D|--77--5-77--5-77--5-77---7-5-4-22--5-22--5-22--||
A|--55--3-55--3-55--3-55---5-3-2-00--5-00--5-00--||
E|-----------------------------------3-----3-----||

I tabbed this by memory so how many times you strum
some parts in the chorus might be a little off, but
all you need is here, 'cept for the solo, of course.
Comments