Gg Allin - Legalize Murder Chords & Tabs

 

Legalize Murder Chords & Tabs

Gg Allin Chords & Tabs

Version: 1 Type: Tab 0 ratings
1 star 2 stars 3 stars 4 stars 5 stars
comments

Legalize Murder Tab

LEGALIZE MURDER, by GG Allin & the Murder Junkies
From the album "Brutality & Bloodshed For All"
Tabbed by Jake Strange (aka: Scumfuc)
Email:  jakestrange@chaosmagic.com

Main Riff:
e|--0-------0-------------------------------------------|
B|--0-------0----------------------------------3--3--2--|
G|--x------------2------------------4----2-----2--2--2--|
D|--2----5--2----2--2---(2)-----5---4----2--------------|
A|--2----5--2----0--2---(2)-----5---2----0--------------|
E|--0----3--0-------0---(0)-----3-----------------------|

Chorus:
E|--------------------------------------|
B|--------------------------------------|
G|--------------------------------------|
D|--5555555--777777--5555555--99999999--|
A|--5555555--777777--5555555--99999999--|
E|--3333333--555555--3333333--77777777--|

2nd Riff:
e|----------------------|---------------------------------|
B|----------------------|---------------------------------|
G|--------------5--4----|----5--4--2----------------------|
D|--2------5----5--4----|----5--4--2-----------2----------|
A|--2------5----3--2----|----3--2--0-----------2----------|
E|--0------3------------|----------------3-----0----------|


To end the song,play the 1st part of the "2nd riff" then
play this:
e|-----------------------------------------|
B|-----------------------------------------|
G|--5--4--5--4--5--4--2------------9\------|
D|--5--4--5--4--5--4--2--5---2-----9\---2--|
A|--3--2--3--2--3--2--0--5---2-----7\---2--|
E|-----------------------3---0----------0--|
[ Tab from: http://www.guitartabs.cc/tabs/g/gg_allin/legalize_murder_tab.html ]
Solo:
This is a really horrible attempt to tab the solo, the timing is
a little off (as w/ a lot of my tabs), but it's sort of there
except a few parts I can't get....
e|-----------------------------------------------------------------------
B|--8---8---8---8--8---8--10-10---10-10---10---10----8--8---8---8--8---8-
G|--7-7---7---7-7----7-----9--9-9-----9-9----9-------7----7---7----7-----
D|-----------------------------------------------------------------------
A|-----------------------------------------------------------------------
E|-----------------------------------------------------------------------

e|--------------------------?-------------------------------------?-----
B|-----------------------?---?-?-5-5---5-5-5-5--8-8-8-8-8-8-8-8---?--?--
G|--44444444--2020202020--?-?-?--4-4-4-4-4-4-4--7-7-7-7-7-7-7-7-7--?--?-
D|--------------(trill)---------------------------------------------?---
A|----------------------------------------------------------------------
E|----------------------------------------------------------------------

e|-----------------------------------------------------------------------|
B|--12---12---12---12---12----12---12----12-12-12-12-12-12-12-12-12-12---|
G|--14b----14b--14b--14b14b14b--14b------11-11-11-11-11-11-11-11-11-11\--|
D|-----------------------------------------------------------------------|
A|-----------------------------------------------------------------------|
E|-----------------------------------------------------------------------|

Anyone who can help correct this can email me, but please,no insults...
I know it sucks.
Comments