Gg Allin - Kill Thy Father Rape Thy Mother Chords & Tabs

 

Kill Thy Father Rape Thy Mother Chords & Tabs

Gg Allin Chords & Tabs

Version: 1 Type: Tab 0 ratings
1 star 2 stars 3 stars 4 stars 5 stars
comments

Kill Thy Father Rape Thy Mother Tab

KILL THY FATHER, RAPE THY MOTHER, by GG Allin & the Murder Junkies.
From the album "Brutality & Bloodshed For All"
Tabbed by Jake Strange. (aka: scumfuc)
Email:  jakestrange@chaosmagic.com

Intro:
e|--------------------|
B|--------------------|
G|--7-----------------|
D|--7------7-------9--|
A|--5------7-------9--|
E|---------5-------7--| Hold last chord & let feedback ring out.
                        Then a steady drum beat comes in...then
                        play the following part when GG starts singing:

e|----------------------------|
B|----------------------------|
G|--7-7-7-7-7-----------------|
D|--7-7-7-7-7----7-----9------| (same thing, only played different)
A|--5-5-5-5-5----7-----9------|
E|---------------5-----7------|
[ Tab from: http://www.guitartabs.cc/tabs/g/gg_allin/kill_thy_father_rape_thy_mother_tab.html ]
Verse Riff:
e|-----------------------------------------|
B|-----------------------------------------|
G|-----------------------------7-----------|  (guitar)
D|-----------------------------7-----7-----|
A|-----9-----8-----7-----------5-----7-----|
E|--7-----7-----7--------7-----------5-----|
 |                                         |
G|-----------------------------------------|
D|-----------------------------------------|
A|--2--2--2--2--2--2--2--2--2--5-----0-----| (bassline)
E|-----------------------------------------|
 (the bass pretty much just mocks the guitars in everything else)


Chorus: (it is my fate to murder you, your teachings....)
e|-----------------------------|---------------------------|
B|-----------------------------|---------------------------|
G|-------------8/9-9-9-8/9-9-9-|-----7-----9---------------|
D|-5-5-5-5-5-5-8/9-9-9-8/9-9-9-|-----7-----9-----5---------|
A|-5-5-5-5-5-5-6/7-7-7-6/7-7-7-|-----5-----7-----5---------|
E|-3-3-3-3-3-3-----------------|-----------------3---------|
  (play this 1st part 2x)
Comments