Gg Allin - Guns Bitches Brawls And Bottles Chords & Tabs

 

Guns Bitches Brawls And Bottles Chords & Tabs

Gg Allin Chords & Tabs

Version: 1 Type: Tab 0 ratings
1 star 2 stars 3 stars 4 stars 5 stars
comments

Guns Bitches Brawls And Bottles Tab

   
GUNS BITCHES BRAWLS & BOTTLES
by GG ALLiN & the Criminal Quartet
Tabbed by Jake Strange (Scumfuc).
Email:  jakestrange@chaosmagic.com   or  scumfuc_69@yahoo.com

I only tabbed each chord in its proper place for the rhythm
guitars, not how many times they're strummed, in order to make
this a little easier to read.

INTRO:
(guitar1)
e|--------------0-------------3-------------0-----0----0--|
B|--------------1-------------3-------------1-----1----1--|
G|--------------0-------------0-------------0-----0----0--|
D|--------------2-------------0-------------2-----2----2--|
A|--------------3-------------x-------------3-----3-------|
E|--------------------------------------------------------|
 |(guitar2)                                               ||
e|-------------0---0--------------------------------------|
B|--------3--5b-5b-5---3----5p3------3--------------------|
G|--0--5--4--5-----5---4----------5-----5-----------------|
D|-----5--------------------------------------------------|
A|--------------------------------------------------------|
E|--------------------------------------------------------|

             

VERSES:
(guitar1)
e|--0-------3-------0-----------1-------0-------3-------------
B|--1-------3-------1-----------1-------1-------3-------------
G|--0-------0-------0-----------2-------0-------0-------------
D|--2-------0-------2-----------3-------2-------0-------------
A|--3-------x-------3-----------3-------3-------x-------------
E|----------------------------------------------3-------------
 |(guitar2)
e|---------------------8-8-8-----------------------------7----
B|---------------------8-8-8------------------------8h10---8--
G|------------------------------------------------------------
D|------------------------------------------------------------
A|------------------------------------------------------------
E|----------------------------------------------------continued below...

[ Tab from: http://www.guitartabs.cc/tabs/g/gg_allin/guns_bitches_brawls_and_bottles_tab.html ]
(guitar1)
e|--0-------3-------0-----------0---------3---------1---------------0------|
B|--1-------3-------1-----------1---------3---------1---------------1------|
G|--0-------0-------0-----------2---------0---------2---------------0------|
D|--2-------0-------2-----------2---------0---------3---------------2------|
A|--3-------x-------2-----------0---------x---------3---------------3------|
E|----------3-----------------------------3--------------------------------|
 |(guitar2)                                                                ||
e|---8-8-----7---------8-8------------------------7-----------13-----------|
B|---8-8-----8---------8-8--10----------------6/8---8----10/13---13-----13-|
G|---------------------------9------------------------------------------12-|
D|-------------------------------------------------------------------------|
A|-------------------------------------------------------------------------|
E|-------------------------------------------------------------------------|
          Play all that 2x for each verse.

CHORUS:
(guitar1)
e|--1------------------0------------------1---------------------3---------|
B|--1------------------1------------------1---------------------3---------|
G|--2------------------0------------------2---------------------0---------|
D|--3------------------2------------------3---------------------0---------|
A|--3------------------3------------------3---------------------x---------|
E|--------------------------------------------------------------3---------|
 |(guitar2)                                                               ||
e|--------13--------13---------------------------13--------13----13---15--|
B|--12/13-----12/13-----------13-------13---12/13----12/13------------15--|
G|-----------------------10/12----10/12-----------------------------------|
D|------------------------------------------------------------------------|
A|------------------------------------------------------------------------|
E|------------------------------------------------------------------------|

SOLO: (guitar2)
e|--------------------0----------------------------------
B|--------3--5b---5---5----3----5p3-----3----------3-----
G|--0--5--4--5----5---5----4---------5-----5--2--5----5--
D|-----5-------------------------------------------------
A|-------------------------------------------------------
E|-------------------------------------------------------

e|--------------------8---------8-----------8----------8---8--
B|------------8--8h10-----8h10--8----8--10--8-----8h10-----8--
G|--5--7--9------------------------9--------------------------
D|------------------------------------------------------------
A|------------------------------------------------------------
E|------------------------------------------------------------

e|-------0----------0----------------------0--------------------------------|
B|---5b--5--5---3---5b-5-5\3-----------3--5b-5-5b-3--5p3-----3---------3----|
G|---5---5--5-5-4---5--5-----5---0--5--4--5----5--4-------5-----5--2-5---5--|
D|---------------------------5----------------------------------------------|
A|--------------------------------------------------------------------------|
E|--------------------------------------------------------------------------|
      (rhythm guitar plays verse riff under the solo)

I'd only estimate the intro & this last solo as 90% correct, but that's
the best I can do. I'm not very good with those twangy country-style bends.

x = mute string
b = bend string
/ = slide up
\ = slide down
h = hammer-on
p = pull-off
Comments