Gg Allin - God Of Fire In Hell Chords & Tabs

 

God Of Fire In Hell Chords & Tabs

Gg Allin Chords & Tabs

Version: 1 Type: Tab 0 ratings
1 star 2 stars 3 stars 4 stars 5 stars
comments

God Of Fire In Hell Tab

GOD OF FIRE IN HELL, GG Allin
From the Album "Eat My Fuc"
Tabbed by Jake Strange
Email: scumfuc_69@yahoo.com

Main/verses:
e|-----------------------------|
B|-----------------------------|
G|--5-5--5-5-------------------|
D|--5-5--5-5--3-3--3--3-5-5-5--|
A|--3-3--3-3--3-3--3--3-5-5-5--|
E|------------1-1--1--1-3-3-3--|

Chorus:
e|-----------------------||---------------------------||
B|-----------------------||---------------------------||
G|-------------5-----2---||--------------5------------||
D|--3-----5----5-----2---||--3-----5-----5---5555555--||
A|--3-----5----3-----0---||--3-----5-----3---5555555--||
E|--1-----3--------------||--1-----3---------3333333--||
      (play 3x)                   (play 1x)
[ Tab from: http://www.guitartabs.cc/tabs/g/gg_allin/god_of_fire_in_hell_tab.html ]
Up all night, drunk all night
Just give me another light
Another girl, another world
Another night, another fight
Play my music, play it loud
Start a riot in the crowd.

(chorus)
Do what I want and nothing less
People say I'll never last
Gonna have my fun anyway
I'd rather die young than go their way
Some people say that I'm bad news
"Lock him up, don't turn him loose
Put him in a padded cell
He's the god of fire in hell!"

Here I go another time
Putting my life on the line
Party hard, play for keeps
Cut my skin until it bleeds
Find an alley, spend the night
I wake up in a daze a lot.
(repeat chorus)

Up all night, drunk all night...
Drive my car, drive it fast
Put my foot down to the gas
Add some fire and I'm crazed
You'll never put me in a cage.
----------
(lyrics for the chorus change a little, but this one's easy)
Comments