Gg Allin - Fuck Authority Chords & Tabs

 

Fuck Authority Chords & Tabs

Gg Allin Chords & Tabs

Version: 1 Type: Bass Tab 0 ratings
1 star 2 stars 3 stars 4 stars 5 stars
comments

Fuck Authority Bass Tab

FUCK AUTHORITY, by GG Allin & Bill Widenhofer.
From the album "Carnival of Excess"
Tabbed by Jake Strange (aka, Scumfuc)
Email:  jakestrange@chaosmagic.com

main riff/verses:
G|--5-----5----------------------5-----5--(5)--4--2-------------------2--4--
D|-----5-----5---3-----3------------5----------------5-----5---5------------
A|------------------3-----3-----------------------------5-------------------
E|--------------------------------------------------------------------------
[ Tab from: http://www.guitartabs.cc/tabs/g/gg_allin/fuck_authority_btab.html ]
G|--5-----5----------------------5---5--4--2----------------2--4--5--||
D|-----5-----5---3-----3----------------------5-----3----------------||
A|------------------3-----3------------------------------------------||
E|-------------------------------------------------------------------||

Chorus: 
G|-------------------------------------------------------------------2--4--||
D|--3-----3------------------2--3---3-----3---------5---5-----5------------||
A|-----3-----3---3-----3---5-----------3-----3-------------5---------------||
E|------------------3------------------------------------------------------||

NOTE: The last 2 notes in the chorus might be wrong, anyone feel free
      to correct me.

END:
G|--------------------------------------||
D|--------------------------------------||
A|--3--2--0------------------0--2---3---||
E|-----------3-----1------3-------------||

PLay this at the very end of the song.
Comments