Gg Allin - Expose Yourself To Kids Chords & Tabs

 

Expose Yourself To Kids Chords & Tabs

Gg Allin Chords & Tabs

Version: 1 Type: Tab 0 ratings
1 star 2 stars 3 stars 4 stars 5 stars
comments

Expose Yourself To Kids Tab

EXPOSE YOURSELF TO KIDS
by GG Allin & the AIDS Brigade
Tabbed by Jake Strange
Email: scumfuc_69@yahoo.com
Appears on the very rare 7" EP w/ the AIDS Brigade,
and Expose Yourself: the Singles Collection 1977-1991

Intro:
e|--------------------------------------------------|
B|--------------------------------------------------|
G|-----7---4---5---------------------7--------------|
D|--5--7---4---5-----------------5---7---5----------|
A|--5--5---2---3-----------------5---5---5----5--5--|
E|--3----------------------------3-------3----3--3--|
                                             pm---|
[ Tab from: http://www.guitartabs.cc/tabs/g/gg_allin/expose_yourself_to_kids_tab.html ]
Verses:
e|----------------------------||-------------------------------|
B|----------------------------||-------------------------------|
G|-----7--4--5---------7--4---||-----7--4--5-------7-----------|
D|--5--7--4--5------5--7--4---||--5--7--4--5----5--7--5---5--5-|
A|--5--5--2--3------5--5--2---||--5--5--2--3----5--5--5---5--5-|
E|--3---------------3---------||--3-------------3-----3---3--3-|
                                                         pm---|

Chorus:
e|----------------------------||---------------------------------||
B|----------------------------||---------------------------------||
G|--5--7--4--5------5--7------||--5--7--4--5----5--7-------------||
D|--5--7--4--5------5--7--5---||--5--7--4--5----5--7-(pause)--5--||
A|--3--5--2--4------3--5--5---||--3--5--2--3----3--5----------5--||
E|------------------------3---||---------------------(pause)--3--||

One of my favorites...also very simple, just tune it right.
I'm still figuring out the solo but almost finished
I will hopefully post it soon, unless someone else wants to.
The 1st note of it is an "E" played on the g-string, 9th fret...
go from there....
For the lyirics, go to EK's GG Allin SuperSite, or
 Swedish Scum's GG Allin Nation.
Comments