Gg Allin - Bloody Marys Bloody Cunt Chords & Tabs

 

Bloody Marys Bloody Cunt Chords & Tabs

Gg Allin Chords & Tabs

Version: 1 Type: Tab 0 ratings
1 star 2 stars 3 stars 4 stars 5 stars
comments

Bloody Marys Bloody Cunt Tab

   
GG ALLIN & THE HOLYMEN    (TABBED BY AL email:wellspunker@aol.com)
Bloody Mary's Bloody Cunt
(You Give Love A Bad Name LP 1987)

(Main/Verse)
|----------------------------------------------|
|---5-7-5----5-7-5----5-7-5--7b-h-h-h-h-r-5----|
|---5-7-5----5-7-5----5-7-5--7b-h-h-h-h-r-5----|
|-7--------7--------7-----------------------7~-|
|----------------------------------------------|
|----------------------------------------------|

(Bass)
|-------------|-----|
|-------------|-----|
|----3--5--3--|-----|
|-5-----------|--5--| (ect!)

Bloody, bloody mary you're always on the rag
Well, bloody, bloody mary you're always on the rag
I wanna suck your pussy 'till my face is bloody red
I wanna chew your tampon and stick it up your ass
There's nothing like sucking bloody Mary's bleeding cunt

(Chorus)
  C5          D5
|------------------------|
|------------------------|
|-5--5--5--5--7--7--7--7-|
|-5--5--5--5--7--7--7--7-|
|-3--3--3--3--5--5--5--5-|
|------------------------|

Bloody, bloody, bloody, bloody,
bloody, bloody, bloody, bloody Mary
[ Tab from: http://www.guitartabs.cc/tabs/g/gg_allin/bloody_marys_bloody_cunt_tab.html ]
I wanna take your blood and shove it up your twat
Come sit on my face, I wanna eat your blood clots
I wanna twat fuck you evertime of the month
There's nothing like sucking bloody Mary's bleeding cunt

[Chorus]

Bloody Mary, bloody Mary save your blood for me
You hit the time of the month I'll suck your pussy all day
I'm the blood for you, but are you the blood for me
Bloody mary's face is the place I wanna sit

[Chorus]

(Bridge)
  C5       D5         E5   F5    A5
|------------------|-------------------|
|------------------|-------------------|
|-5-5-5-5--7-7-7-7-|-9-/-10------------|
|-5-5-5-5--7-7-7-7-|-9-/-10---7--7-7-7-|
|-3-3-3-3--5-5-5-5-|-7-/--9---7--7-7-7-|
|------------------|----------5--5-5-5-|

Bloody, bloody, bloody, bloody, bloody
Oh, you're so good at that time of the month

Bloody, bloody mary you're always on the rag
I wanna suck your pussy 'till my face is bloody red
I wanna chew your tampon and I wanna shove it up your ass
I wanna fuck you with a piece of broken glass, oh yeah

[Chorus]

(Outro Lead-Same as Intro but sounds better played ike this)
|-----------------------------------------------|
|----1-3-1----1-3-1----1-3-1--/4--4-4-4-4-3-1-0-|
|--2--------2--------2--------------------------|
|-----------------------------------------------|
|-----------------------------------------------|
|-----------------------------------------------|
Comments