Gg Allin - Bite It You Scum Chords & Tabs

 

Bite It You Scum Chords & Tabs

Gg Allin Chords & Tabs

Version: 2 Type: Tab 0 ratings
1 star 2 stars 3 stars 4 stars 5 stars
comments

Bite It You Scum Tab

BITE IT YOU SCUM, by GG Allin
Tabbed by Travis Coombs
Email:  badreligion_16@hotmail.com

Alright, heres GG's song bite it you scum. The last guy didn't put in the solo, so I did 
beginners starting out, i mean its alright for a first time soloer so have fun.


e|-----------------------------------------|
B|-----------------------------------------|
G|--------------------------5-5-5----------|
D|--7-7-xx-7-7-7-7---3-3-3--5-5-5--5-5-5-5-|
A|--7-7-xx-7-7-7-7---3-3-3--3-3-3--5-5-5-5-|
E|--5-5-xx-5-5-5-5---1-1-1---------3-3-3-3-|
Do this for the verses and chorus, mix it up with some palm muting during the verses if 
feel bored ;)

Solo:
Though not exactly the same as Gg's it sounds the same.

[ Tab from: http://www.guitartabs.cc/tabs/g/gg_allin/bite_it_you_scum_tab_ver_2.html ]
e|--5-3-0-3-0-3--5-3-0-3-0-3--5-3-0-3-0-3--------------------------------------|
B|------------------------------------------3-3-3/5----------------------------|
G|-----------------------------------------------------------------------------|
D|-----------------------------------------------------------------------------|
A|-----------------------------------------------------------------------------|
E|-----------------------------------------------------------------------------|

do this twice followed by:

e|--8-7-5--8-7-5--8-7-5-/10--12-12-12-12--14-14-14-14--15-15-15-15-15-17^18--|
B|---------------------------------------------------------------------------|
G|---------------------------------------------------------------------------|
D|---------------------------------------------------------------------------|
A|---------------------------------------------------------------------------|
E|---------------------------------------------------------------------------|

Then the last note is just open e string (0 on e). Feel free to add your own solo if 
is too easy for you :)

Cheers,
Travis
Comments