Gg Allin - Anti Social Masterbator Chords & Tabs

 

Anti Social Masterbator Chords & Tabs

Gg Allin Chords & Tabs

Version: 1 Type: Tab 0 ratings
1 star 2 stars 3 stars 4 stars 5 stars
comments

Anti Social Masterbator Tab

ANTI SOCIAL MASTERBATOR, by GG Allin & Bulge
From the album "Freaks Faggots Drunks & Junkies"
Tabbed by Jake Strange
Email: scumfuc_69@yahoo.com

Main part:
e|------------------------------------||-----------------------------||
B|------------------------------------||-----------------------------||
G|-------------------9--9-9--5-5-5-5--||-----------------------------||
D|-------------------9--9-9--5-5-5-5--||--2-----2-----2-----2-----2--||
A|--2-----2-----2-2--7--7-7--3-3-3-3--||--2-----2-----2-----2-----2--||
E|--0--3--0--3--0-0-------------------||--0-----0-----0-----0-----0--||
                                        "an"   "ti"  "so" "cial" "mas" etc.
[ Tab from: http://www.guitartabs.cc/tabs/g/gg_allin/anti_social_masterbator_tab.html ]
Ending:
e|------------------------|
B|------------------------|
G|-----7---------10-10-10-|
D|--7--7--7--9---10-10-10-|
A|--7--5--7--9----8--8--8-|
E|--5-----5--7------------|

[Ain't got no woman????]
Ain't got much to say
Just stay inside my 4 walls
& masturbate all day
Antisocial masturbator!

Drink, smoke, shoot & blow
is all the passion I need
Don't need some cunt to fuck me up
My girl's on page 19
Antisocial masturbator!

When I'm walking down the street
I'm talking to myself
I keep it all locked up inside
& when it's time you'll pay
Antisocial masturbator!

Don't need [a fucking thing????]
Don't need your social ways
Don't talk to me or even look
You're just the shit that I just took
Antisocial masturbator!

Lyrics in brackets [] are ones I'm not sure of.
Comments